  0
SECTION
  2
HEADER
  9
$ACADVER
  1
AC1015
  9
$ACADMAINTVER
 70
    20
  9
$DWGCODEPAGE
  3
ANSI_1252
  9
$INSBASE
 10
0.0
 20
0.0
 30
0.0
  9
$EXTMIN
 10
-101.0340402608926
 20
4188.336293459747
 30
0.0
  9
$EXTMAX
 10
3998.965959739108
 20
7058.336293459747
 30
0.1234
  9
$LIMMIN
 10
0.0
 20
0.0
  9
$LIMMAX
 10
4200.0
 20
2970.0
  9
$ORTHOMODE
 70
     1
  9
$REGENMODE
 70
     1
  9
$FILLMODE
 70
     1
  9
$QTEXTMODE
 70
     0
  9
$MIRRTEXT
 70
     1
  9
$LTSCALE
 40
10.0
  9
$ATTMODE
 70
     1
  9
$TEXTSIZE
 40
50.0
  9
$TRACEWID
 40
0.05
  9
$TEXTSTYLE
  7
STANDARD
  9
$CLAYER
  8
0
  9
$CELTYPE
  6
BYLAYER
  9
$CECOLOR
 62
   256
  9
$CELTSCALE
 40
1.0
  9
$DISPSILH
 70
     0
  9
$DIMSCALE
 40
150.0
  9
$DIMASZ
 40
0.18
  9
$DIMEXO
 40
0.06
  9
$DIMDLI
 40
0.38
  9
$DIMRND
 40
0.0
  9
$DIMDLE
 40
0.0
  9
$DIMEXE
 40
0.18
  9
$DIMTP
 40
0.0
  9
$DIMTM
 40
0.0
  9
$DIMTXT
 40
0.18
  9
$DIMCEN
 40
0.09
  9
$DIMTSZ
 40
0.0
  9
$DIMTOL
 70
     0
  9
$DIMLIM
 70
     0
  9
$DIMTIH
 70
     0
  9
$DIMTOH
 70
     0
  9
$DIMSE1
 70
     0
  9
$DIMSE2
 70
     0
  9
$DIMTAD
 70
     1
  9
$DIMZIN
 70
     0
  9
$DIMBLK
  1

  9
$DIMASO
 70
     1
  9
$DIMSHO
 70
     1
  9
$DIMPOST
  1

  9
$DIMAPOST
  1

  9
$DIMALT
 70
     0
  9
$DIMALTD
 70
     2
  9
$DIMALTF
 40
25.4
  9
$DIMLFAC
 40
1.0
  9
$DIMTOFL
 70
     0
  9
$DIMTVP
 40
0.0
  9
$DIMTIX
 70
     0
  9
$DIMSOXD
 70
     0
  9
$DIMSAH
 70
     0
  9
$DIMBLK1
  1

  9
$DIMBLK2
  1

  9
$DIMSTYLE
  2
BASE
  9
$DIMCLRD
 70
     0
  9
$DIMCLRE
 70
     0
  9
$DIMCLRT
 70
     0
  9
$DIMTFAC
 40
1.0
  9
$DIMGAP
 40
0.09
  9
$DIMJUST
 70
     0
  9
$DIMSD1
 70
     0
  9
$DIMSD2
 70
     0
  9
$DIMTOLJ
 70
     1
  9
$DIMTZIN
 70
     0
  9
$DIMALTZ
 70
     0
  9
$DIMALTTZ
 70
     0
  9
$DIMUPT
 70
     0
  9
$DIMDEC
 70
     4
  9
$DIMTDEC
 70
     4
  9
$DIMALTU
 70
     2
  9
$DIMALTTD
 70
     2
  9
$DIMTXSTY
  7
STANDARD
  9
$DIMAUNIT
 70
     0
  9
$DIMADEC
 70
     0
  9
$DIMALTRND
 40
0.0
  9
$DIMAZIN
 70
     0
  9
$DIMDSEP
 70
    46
  9
$DIMATFIT
 70
     3
  9
$DIMFRAC
 70
     0
  9
$DIMLDRBLK
  1

  9
$DIMLUNIT
 70
     2
  9
$DIMLWD
 70
    -2
  9
$DIMLWE
 70
    -2
  9
$DIMTMOVE
 70
     0
  9
$LUNITS
 70
     2
  9
$LUPREC
 70
     2
  9
$SKETCHINC
 40
0.1
  9
$FILLETRAD
 40
0.0
  9
$AUNITS
 70
     0
  9
$AUPREC
 70
     0
  9
$MENU
  1
C:\promecad\acad
  9
$ELEVATION
 40
0.0
  9
$PELEVATION
 40
0.0
  9
$THICKNESS
 40
0.0
  9
$LIMCHECK
 70
     0
  9
$CHAMFERA
 40
95.0
  9
$CHAMFERB
 40
95.0
  9
$CHAMFERC
 40
0.0
  9
$CHAMFERD
 40
0.0
  9
$SKPOLY
 70
     0
  9
$TDCREATE
 40
2450589.694948854
  9
$TDUCREATE
 40
2450589.611615521
  9
$TDUPDATE
 40
2453830.465844490
  9
$TDUUPDATE
 40
2453830.382511158
  9
$TDINDWG
 40
2.6103846065
  9
$TDUSRTIMER
 40
2.6103846065
  9
$USRTIMER
 70
     1
  9
$ANGBASE
 50
0.0
  9
$ANGDIR
 70
     0
  9
$PDMODE
 70
     0
  9
$PDSIZE
 40
0.0
  9
$PLINEWID
 40
0.0
  9
$SPLFRAME
 70
     0
  9
$SPLINETYPE
 70
     6
  9
$SPLINESEGS
 70
     8
  9
$HANDSEED
  5
2976
  9
$SURFTAB1
 70
     6
  9
$SURFTAB2
 70
     6
  9
$SURFTYPE
 70
     6
  9
$SURFU
 70
     6
  9
$SURFV
 70
     6
  9
$UCSBASE
  2

  9
$UCSNAME
  2

  9
$UCSORG
 10
0.0
 20
0.0
 30
0.0
  9
$UCSXDIR
 10
1.0
 20
0.0
 30
0.0
  9
$UCSYDIR
 10
0.0
 20
1.0
 30
0.0
  9
$UCSORTHOREF
  2

  9
$UCSORTHOVIEW
 70
     0
  9
$UCSORGTOP
 10
0.0
 20
0.0
 30
0.0
  9
$UCSORGBOTTOM
 10
0.0
 20
0.0
 30
0.0
  9
$UCSORGLEFT
 10
0.0
 20
0.0
 30
0.0
  9
$UCSORGRIGHT
 10
0.0
 20
0.0
 30
0.0
  9
$UCSORGFRONT
 10
0.0
 20
0.0
 30
0.0
  9
$UCSORGBACK
 10
0.0
 20
0.0
 30
0.0
  9
$PUCSBASE
  2

  9
$PUCSNAME
  2

  9
$PUCSORG
 10
0.0
 20
0.0
 30
0.0
  9
$PUCSXDIR
 10
1.0
 20
0.0
 30
0.0
  9
$PUCSYDIR
 10
0.0
 20
1.0
 30
0.0
  9
$PUCSORTHOREF
  2

  9
$PUCSORTHOVIEW
 70
     0
  9
$PUCSORGTOP
 10
0.0
 20
0.0
 30
0.0
  9
$PUCSORGBOTTOM
 10
0.0
 20
0.0
 30
0.0
  9
$PUCSORGLEFT
 10
0.0
 20
0.0
 30
0.0
  9
$PUCSORGRIGHT
 10
0.0
 20
0.0
 30
0.0
  9
$PUCSORGFRONT
 10
0.0
 20
0.0
 30
0.0
  9
$PUCSORGBACK
 10
0.0
 20
0.0
 30
0.0
  9
$USERI1
 70
    10
  9
$USERI2
 70
     1
  9
$USERI3
 70
     0
  9
$USERI4
 70
     2
  9
$USERI5
 70
     0
  9
$USERR1
 40
0.0
  9
$USERR2
 40
0.0
  9
$USERR3
 40
0.0
  9
$USERR4
 40
0.0
  9
$USERR5
 40
0.0
  9
$WORLDVIEW
 70
     1
  9
$SHADEDGE
 70
     3
  9
$SHADEDIF
 70
    70
  9
$TILEMODE
 70
     1
  9
$MAXACTVP
 70
    16
  9
$PINSBASE
 10
0.0
 20
0.0
 30
0.0
  9
$PLIMCHECK
 70
     0
  9
$PEXTMIN
 10
1.000000000000000E+20
 20
1.000000000000000E+20
 30
1.000000000000000E+20
  9
$PEXTMAX
 10
-1.000000000000000E+20
 20
-1.000000000000000E+20
 30
-1.000000000000000E+20
  9
$PLIMMIN
 10
0.0
 20
0.0
  9
$PLIMMAX
 10
12.0
 20
9.0
  9
$UNITMODE
 70
     0
  9
$VISRETAIN
 70
     0
  9
$PLINEGEN
 70
     0
  9
$PSLTSCALE
 70
     1
  9
$TREEDEPTH
 70
  3020
  9
$CMLSTYLE
  2
STANDARD
  9
$CMLJUST
 70
     0
  9
$CMLSCALE
 40
1.0
  9
$PROXYGRAPHICS
 70
     1
  9
$MEASUREMENT
 70
     0
  9
$CELWEIGHT
370
    -1
  9
$ENDCAPS
280
     0
  9
$JOINSTYLE
280
     0
  9
$LWDISPLAY
290
     0
  9
$INSUNITS
 70
     0
  9
$HYPERLINKBASE
  1

  9
$STYLESHEET
  1

  9
$XEDIT
290
     1
  9
$CEPSNTYPE
380
     0
  9
$PSTYLEMODE
290
     1
  9
$FINGERPRINTGUID
  2
{9ED6BB44-B49C-4B2F-B3F7-7C6C44D0F7D2}
  9
$VERSIONGUID
  2
{192933F0-012B-4DB5-91B1-1F11F2CF81DE}
  9
$EXTNAMES
290
     1
  9
$PSVPSCALE
 40
0.0
  9
$OLESTARTUP
290
     0
  0
ENDSEC
  0
SECTION
  2
CLASSES
  0
CLASS
  1
ACDBDICTIONARYWDFLT
  2
AcDbDictionaryWithDefault
  3
ObjectDBX Classes
 90
        0
280
     0
281
     0
  0
CLASS
  1
ACDBPLACEHOLDER
  2
AcDbPlaceHolder
  3
ObjectDBX Classes
 90
        0
280
     0
281
     0
  0
CLASS
  1
LAYOUT
  2
AcDbLayout
  3
ObjectDBX Classes
 90
        0
280
     0
281
     0
  0
CLASS
  1
TABLESTYLE
  2
AcDbTableStyle
  3
ObjectDBX Classes
 90
     2047
280
     0
281
     0
  0
CLASS
  1
ACME_DOCUMENT
  2
AcMeDbDoc
  3
AcMeServices
 90
        0
280
     0
281
     0
  0
CLASS
  1
AMGSETTINGSOBJ
  2
AmgSettingsObj
  3
"AcadM|Product Description: AutoCAD Mechanical 2000|Company: Autodesk"
 90
        0
280
     0
281
     0
  0
CLASS
  1
ACMESCOPE
  2
AcMeScope
  3
AcMeServices
 90
        0
280
     0
281
     0
  0
CLASS
  1
ACMECOMMANDHISTORY
  2
AcMeCommandHistory
  3
AcMeServices
 90
        0
280
     0
281
     0
  0
CLASS
  1
ACIMSYSVARMAN
  2
AcImSysVarManager
  3
AcMeServices
 90
        0
280
     0
281
     0
  0
CLASS
  1
ACIMINTSYSVAR
  2
AcImIntSysVar
  3
AcMeServices
 90
        0
280
     0
281
     0
  0
CLASS
  1
ACMEDRAWINGMAN
  2
AcMeDrawingMan
  3
AcMeServices
 90
        0
280
     0
281
     0
  0
CLASS
  1
ACMEVIEW
  2
AcMeView
  3
AcMeServices
 90
        0
280
     0
281
     0
  0
CLASS
  1
ACDBENTITYCACHE
  2
AcMeEntityCache
  3
AcMeServices
 90
        0
280
     0
281
     0
  0
CLASS
  1
GSMANAGER
  2
AcMeGSManager
  3
AcMeServices
 90
        0
280
     0
281
     0
  0
CLASS
  1
AMDTINTERNALREACTOR
  2
AmdtInternalReactor
  3
AcMeServices
 90
        0
280
     0
281
     0
  0
CLASS
  1
ACMESTATEMGR
  2
AcMeStateMgr
  3
AcMeServices
 90
        0
280
     0
281
     0
  0
CLASS
  1
ACGREFMASTER
  2
AcGrefMaster
  3
AcAttribServices
 90
        0
280
     0
281
     0
  0
CLASS
  1
AM_DRAWING_MGR
  2
AcDmDwgMgr
  3
AcMechDwgViewMgmt
 90
        0
280
     0
281
     0
  0
CLASS
  1
AM_DWG_DOCUMENT
  2
AcDmDwgDocument
  3
AcMechDwgViewMgmt
 90
        0
280
     0
281
     0
  0
CLASS
  1
AM_DWG_SHEET
  2
AcDmSheet
  3
AcMechDwgViewMgmt
 90
        0
280
     0
281
     0
  0
CLASS
  1
AM_VIEWDIMPARMAP
  2
AcDmViewDimParMap
  3
AcMechDwgViewMgmt
 90
        0
280
     0
281
     0
  0
CLASS
  1
ACIMREALSYSVAR
  2
AcImRealSysVar
  3
AcMeServices
 90
        0
280
     0
281
     0
  0
CLASS
  1
AM_DWGMGR_NAME
  2
AcDmDwgMgrName
  3
AcMechDwgViewMgmt
 90
        0
280
     0
281
     0
  0
CLASS
  1
ACME_DATABASE
  2
AcMeDbDatabase
  3
AcMeServices
 90
        0
280
     0
281
     0
  0
CLASS
  1
ACRFINSADJUSTERMGR
  2
AcRfInsAdjusterMgr
  3
AcMeServices
 90
        0
280
     0
281
     0
  0
CLASS
  1
ACGREFACADMASTER
  2
AcGrefacadMaster
  3
AcGrefServices
 90
        0
280
     0
281
     0
  0
CLASS
  1
AMDTMENUSTATEMGR
  2
AmdtMenuStateMgr
  3
McadcomServices
 90
        0
280
     0
281
     0
  0
CLASS
  1
AMDTMCOMMENUSTATE
  2
AmdtMcomMenuState
  3
McadcomServices
 90
        0
280
     0
281
     0
  0
CLASS
  1
AMIMASTER
  2
AmiMaster
  3
AmiServices
 90
        0
280
     0
281
     0
  0
CLASS
  1
MAPIAMMOUDLE
  2
MApiAmModule
  3
MApiAmServices
 90
        0
280
     0
281
     0
  0
CLASS
  1
AMDTADMENUSTATE
  2
AmdtAdMenuState
  3
DesignerServices
 90
        0
280
     0
281
     0
  0
CLASS
  1
ADAPPL
  2
AcAdAppl
  3
DesignerServices
 90
        0
280
     0
281
     0
  0
CLASS
  1
DEPMGR
  2
AcAdDepMgr
  3
DesignerServices
 90
        0
280
     0
281
     0
  0
CLASS
  1
PARAMMGR
  2
AcAdParamMgr
  3
DesignerServices
 90
        0
280
     0
281
     0
  0
CLASS
  1
PARAMSCOPE
  2
AcAdParamScope
  3
DesignerServices
 90
        0
280
     0
281
     0
  0
CLASS
  1
NAMEDAPPL
  2
AcAdNamedAppl
  3
DesignerServices
 90
        0
280
     0
281
     0
  0
CLASS
  1
AMDTDMMENUSTATE
  2
AmdtDmMenuState
  3
AcMechDwgViewMgmt
 90
        0
280
     0
281
     0
  0
CLASS
  1
AMDTAMMENUSTATE
  2
AmdtAmMenuState
  3
DesignerAssemblies
 90
        0
280
     0
281
     0
  0
CLASS
  1
ACIMSTRSYSVAR
  2
AcImStrSysVar
  3
AcMeServices
 90
        0
280
     0
281
     0
  0
CLASS
  1
ACAMPROJECT
  2
AcAmProject
  3
DesignerAssemblies
 90
        0
280
     0
281
     0
  0
CLASS
  1
ACAMGRCOMPDEF
  2
AcAmGrCompDef
  3
DesignerAssemblies
 90
        0
280
     0
281
     0
  0
CLASS
  1
ACCMCONTEXT
  2
AcCmContext
  3
DesignerAssemblies
 90
        0
280
     0
281
     0
  0
CLASS
  1
ACAMCOMPDEF
  2
AcAmCompDef
  3
DesignerAssemblies
 90
        0
280
     0
281
     0
  0
CLASS
  1
ACAMCOMPDEFMGR
  2
AcAmCompDefMgr
  3
DesignerAssemblies
 90
        0
280
     0
281
     0
  0
CLASS
  1
AMCONTEXTMGR
  2
AcAmContextMgr
  3
DesignerAssemblies
 90
        0
280
     0
281
     0
  0
CLASS
  1
ACAMCONTEXTMODELER
  2
AcAmContextModeler
  3
DesignerAssemblies
 90
        0
280
     0
281
     0
  0
CLASS
  1
ACMDATADICTIONARY
  2
AcmDataDictionary
  3
"AcmSymBB|Product Description: AutoCAD Mechanical 2004 DX|Company: Autodesk"
 90
        0
280
     0
281
     0
  0
CLASS
  1
CATALOGSTATE
  2
AcAmCatalogState
  3
DesignerAssemblies
 90
        0
280
     0
281
     0
  0
CLASS
  1
ACAMGRCOMPDEFSET
  2
AcAmGrCompDefSet
  3
DesignerAssemblies
 90
        0
280
     0
281
     0
  0
CLASS
  1
AMDTBROWSERDBTAB
  2
AmdtBrowserDbTab
  3
McadcomServices
 90
        0
280
     0
281
     0
  0
CLASS
  1
CBROWSERAPPOBJECT
  2
CBrowserAppObject
  3
McadcomServices
 90
        0
280
     0
281
     0
  0
CLASS
  1
DM_PLACEHOLDER
  2
AcDmSelsetPlaceholder
  3
AcMechDwgViewMgmt
 90
        0
280
     0
281
     0
  0
CLASS
  1
ACMSTANDARDANSI
  2
AcmStandardANSI
  3
"Amdt_StdImp|Product Description: AutoCAD Mechanical 2004 DX|Company: Autodesk"
 90
        0
280
     0
281
     0
  0
CLASS
  1
AMGOBJPROPCFG
  2
AmgObjPropCfg
  3
"AmgLay|Product Description: AutoCAD Mechanical 2000|Company: Autodesk"
 90
        1
280
     0
281
     0
  0
CLASS
  1
ACMSURFSTANDARDANSI
  2
AcmSurfTextStdANSI
  3
"Amdt_StdImp|Product Description: AutoCAD Mechanical 2004 DX|Company: Autodesk"
 90
        0
280
     0
281
     0
  0
CLASS
  1
ACMFCFSTANDARDANSI
  2
AcmFCFStdANSI
  3
"Amdt_StdImp|Product Description: AutoCAD Mechanical 2004 DX|Company: Autodesk"
 90
        0
280
     0
281
     0
  0
CLASS
  1
ACMWELDSTANDARDANSI
  2
AcmWeldingStdANSI
  3
"Amdt_StdImp|Product Description: AutoCAD Mechanical 2004 DX|Company: Autodesk"
 90
        0
280
     0
281
     0
  0
CLASS
  1
ACMIDSTANDARDANSI
  2
AcmIdStdANSI
  3
"Amdt_StdImp|Product Description: AutoCAD Mechanical 2004 DX|Company: Autodesk"
 90
        0
280
     0
281
     0
  0
CLASS
  1
ACMDATUMSTANDARDANSI
  2
AcmDatumStdANSI
  3
"Amdt_StdImp|Product Description: AutoCAD Mechanical 2004 DX|Company: Autodesk"
 90
        0
280
     0
281
     0
  0
CLASS
  1
ACMBOMSTANDARDANSI
  2
AcmBOMStdANSI
  3
"Amdt_StdImp|Product Description: AutoCAD Mechanical 2004 DX|Company: Autodesk"
 90
        0
280
     0
281
     0
  0
CLASS
  1
ACMDETAILSTANDARDANSI
  2
AmdtDetailSymStdANSI
  3
"Amdt_StdImp|Product Description: AutoCAD Mechanical 2004 DX|Company: Autodesk"
 90
        0
280
     0
281
     0
  0
CLASS
  1
ACMSECTIONSTANDARDANSI
  2
AmdtSectionSymStdANSI
  3
"Amdt_StdImp|Product Description: AutoCAD Mechanical 2004 DX|Company: Autodesk"
 90
        0
280
     0
281
     0
  0
CLASS
  1
ACMCENTERLINESTANDARDANSI
  2
AmdtCenterLineStdANSI
  3
"Amdt_StdImp|Product Description: AutoCAD Mechanical 2004 DX|Company: Autodesk"
 90
        0
280
     0
281
     0
  0
CLASS
  1
ACMTHREADLINESTANDARDANSI
  2
AmdtThreadLineStdANSI
  3
"Amdt_StdImp|Product Description: AutoCAD Mechanical 2004 DX|Company: Autodesk"
 90
        0
280
     0
281
     0
  0
CLASS
  1
ACMNOTESTANDARDANSI
  2
AmdtNoteStdANSI
  3
"Amdt_StdImp|Product Description: AutoCAD Mechanical 2004 DX|Company: Autodesk"
 90
        0
280
     0
281
     0
  0
CLASS
  1
AMDTNOTETEMPLATEDB
  2
AmdtNoteTemplateDB
  3
AMDT_STDIMP_MODULE_NAME
 90
        0
280
     0
281
     0
  0
CLASS
  1
ACAMGLAYSTD
  2
AcAmgLayStd
  3
"AcAmgLayStd|Product Description: AutoCAD Mechanical 2000|Company: Autodesk"
 90
        0
280
     0
281
     0
  0
CLASS
  1
ACAMGDIMSTD
  2
AcAmgDimStd
  3
"AcAmgDimStd|Product Description: AutoCAD Mechanical 2000|Company: Autodesk"
 90
        0
280
     0
281
     0
  0
CLASS
  1
ACAMGHOLECHARTSTDANSI
  2
AcAmgHoleChartStdANSI
  3
ACMSYMBB_MODULE_NAME
 90
        0
280
     0
281
     0
  0
CLASS
  1
ACAMGTITLESTD
  2
AcAmgTitleStd
  3
"TITLEAPP"
 90
        0
280
     0
281
     0
  0
CLASS
  1
ACAMGFILTERDAT
  2
AcAmgFilterDat
  3
"AcadM|Product Description: AutoCAD Mechanical 2000|Company: Autodesk"
 90
        0
280
     0
281
     0
  0
CLASS
  1
DICTIONARYVAR
  2
AcDbDictionaryVar
  3
ObjectDBX Classes
 90
        0
280
     0
281
     0
  0
ENDSEC
  0
SECTION
  2
TABLES
  0
TABLE
  2
VPORT
  5
8
330
0
100
AcDbSymbolTable
 70
    26
  0
VPORT
  5
2970
330
8
100
AcDbSymbolTableRecord
100
AcDbViewportTableRecord
  2
*Active
 70
     0
 10
0.0
 20
0.0
 11
1.0
 21
1.0
 12
1751.900720279084
 22
5709.250120414218
 13
0.0
 23
0.0
 14
1.0
 24
1.0
 15
0.0
 25
0.0
 16
0.0
 26
0.0
 36
1.0
 17
0.0
 27
0.0
 37
0.0
 40
1020.66247816725
 41
1.516981132075471
 42
50.0
 43
0.0
 44
0.0
 50
0.0
 51
0.0
 71
     0
 72
   100
 73
     1
 74
     0
 75
     0
 76
     0
 77
     0
 78
     1
281
     0
 65
     1
110
0.0
120
0.0
130
0.0
111
1.0
121
0.0
131
0.0
112
0.0
122
1.0
132
0.0
 79
     0
146
0.0
  0
ENDTAB
  0
TABLE
  2
LTYPE
  5
5
330
0
100
AcDbSymbolTable
 70
    22
  0
LTYPE
  5
14
330
5
100
AcDbSymbolTableRecord
100
AcDbLinetypeTableRecord
  2
BYBLOCK
 70
     0
  3

 72
    65
 73
     0
 40
0.0
  0
LTYPE
  5
15
330
5
100
AcDbSymbolTableRecord
100
AcDbLinetypeTableRecord
  2
BYLAYER
 70
     0
  3

 72
    65
 73
     0
 40
0.0
  0
LTYPE
  5
16
330
5
100
AcDbSymbolTableRecord
100
AcDbLinetypeTableRecord
  2
CONTINUOUS
 70
     0
  3
Solid line
 72
    65
 73
     0
 40
0.0
  0
LTYPE
  5
32
330
5
100
AcDbSymbolTableRecord
100
AcDbLinetypeTableRecord
  2
LIRIF
 70
     0
  3
. . . . . . . . . . . . . . . . . .
 72
    65
 73
     4
 40
0.1
 49
0.0
 74
     0
 49
-0.05
 74
     0
 49
0.0
 74
     0
 49
-0.05
 74
     0
  0
LTYPE
  5
33
330
5
100
AcDbSymbolTableRecord
100
AcDbLinetypeTableRecord
  2
ASSI5
 70
     0
  3
- . - . - . -
 72
    65
 73
     4
 40
10.0
 49
5.0
 74
     0
 49
-2.5
 74
     0
 49
0.0
 74
     0
 49
-2.5
 74
     0
  0
LTYPE
  5
34
330
5
100
AcDbSymbolTableRecord
100
AcDbLinetypeTableRecord
  2
ASSI10
 70
     0
  3
- . - . - . -
 72
    65
 73
     4
 40
20.0
 49
10.0
 74
     0
 49
-5.0
 74
     0
 49
0.0
 74
     0
 49
-5.0
 74
     0
  0
LTYPE
  5
35
330
5
100
AcDbSymbolTableRecord
100
AcDbLinetypeTableRecord
  2
TRATTO
 70
     0
  3
- - - - - - - - -
 72
    65
 73
     2
 40
5.0
 49
2.5
 74
     0
 49
-2.5
 74
     0
  0
LTYPE
  5
36
330
5
100
AcDbSymbolTableRecord
100
AcDbLinetypeTableRecord
  2
TRATTINO
 70
     0
  3
- - - - - - - - -
 72
    65
 73
     2
 40
3.0
 49
2.0
 74
     0
 49
-1.0
 74
     0
  0
LTYPE
  5
DE6
330
5
100
AcDbSymbolTableRecord
100
AcDbLinetypeTableRecord
  2
ASSI
 70
     0
  3
assi
 72
    65
 73
     4
 40
17.0
 49
8.0
 74
     0
 49
-4.0
 74
     0
 49
1.0
 74
     0
 49
-4.0
 74
     0
  0
LTYPE
  5
28E2
330
5
100
AcDbSymbolTableRecord
100
AcDbLinetypeTableRecord
  2
HIDDEN
 70
     0
  3
Nascosta __ __ __ __ __ __ __ __ __ __ __ __ __ __
 72
    65
 73
     2
 40
0.375
 49
0.25
 74
     0
 49
-0.125
 74
     0
  0
LTYPE
  5
28E3
330
5
100
AcDbSymbolTableRecord
100
AcDbLinetypeTableRecord
  2
PHANTOM2
 70
     0
  3
Linea-Lineette (.5x) ___ _ _ ___ _ _ ___ _ _ ___ _ _
 72
    65
 73
     6
 40
1.25
 49
0.625
 74
     0
 49
-0.125
 74
     0
 49
0.125
 74
     0
 49
-0.125
 74
     0
 49
0.125
 74
     0
 49
-0.125
 74
     0
  0
LTYPE
  5
28E4
330
5
100
AcDbSymbolTableRecord
100
AcDbLinetypeTableRecord
  2
CENTER
 70
     0
  3
Linea-Lineetta ____ _ ____ _ ____ _ ____ _ ____ _ ____
 72
    65
 73
     4
 40
2.0
 49
1.25
 74
     0
 49
-0.25
 74
     0
 49
0.25
 74
     0
 49
-0.25
 74
     0
  0
LTYPE
  5
2918
330
5
100
AcDbSymbolTableRecord
100
AcDbLinetypeTableRecord
  2
AM_ISO02W050
 70
     0
  3
__ __ __ __ __ __ __ __ __ __ __ __ __ __ __
 72
    65
 73
     2
 40
7.5
 49
6.0
 74
     0
 49
-1.5
 74
     0
  0
LTYPE
  5
2919
330
5
100
AcDbSymbolTableRecord
100
AcDbLinetypeTableRecord
  2
AM_ISO08W050
 70
     0
  3
____ . ____ . ____ . ____ . ____ . ____ . ____
 72
    65
 73
     4
 40
18.0
 49
12.0
 74
     0
 49
-1.5
 74
     0
 49
3.0
 74
     0
 49
-1.5
 74
     0
  0
LTYPE
  5
291A
330
5
100
AcDbSymbolTableRecord
100
AcDbLinetypeTableRecord
  2
AM_ISO09W050
 70
     0
  3
_____ . . _____ . . _____ . . ____ .. ____
 72
    65
 73
     6
 40
22.5
 49
12.0
 74
     0
 49
-1.5
 74
     0
 49
3.0
 74
     0
 49
-1.5
 74
     0
 49
3.0
 74
     0
 49
-1.5
 74
     0
  0
LTYPE
  5
291B
330
5
100
AcDbSymbolTableRecord
100
AcDbLinetypeTableRecord
  2
Amconstr
 70
     0
  3
_______________________
 72
    65
 73
     2
 40
9999.0
 49
9999.0
 74
     0
 49
0.0
 74
     0
  0
LTYPE
  5
291C
330
5
100
AcDbSymbolTableRecord
100
AcDbLinetypeTableRecord
  2
AM_ISO08W050x2
 70
     0
  3
__ . __ . __ . __ . __ . __
 72
    65
 73
     4
 40
9.0
 49
6.0
 74
     0
 49
-0.75
 74
     0
 49
1.5
 74
     0
 49
-0.75
 74
     0
  0
LTYPE
  5
291D
330
5
100
AcDbSymbolTableRecord
100
AcDbLinetypeTableRecord
  2
AM_ISO02W050x2
 70
     0
  3
 _ _ _ _ _ _ _ _ _ _ _ _
 72
    65
 73
     2
 40
3.75
 49
3.0
 74
     0
 49
-0.75
 74
     0
  0
LTYPE
  5
2920
330
5
100
AcDbSymbolTableRecord
100
AcDbLinetypeTableRecord
  2
Amzigzag
 70
     0
  3
/\/-/\/-/\/-/\/-/\/-/\/
 72
    65
 73
     2
 40
11.0001
 49
0.0001
 74
     4
 75
   135
340
291F
 46
0.04
 50
0.0
 44
0.0
 45
0.0
 49
-11.0
 74
     0
  0
LTYPE
  5
2921
330
5
100
AcDbSymbolTableRecord
100
AcDbLinetypeTableRecord
  2
CENTER2
 70
     0
  3
Center (.5x) ___ _ ___ _ ___ _ ___ _ ___ _ ___
 72
    65
 73
     4
 40
1.125
 49
0.75
 74
     0
 49
-0.125
 74
     0
 49
0.125
 74
     0
 49
-0.125
 74
     0
  0
LTYPE
  5
2922
330
5
100
AcDbSymbolTableRecord
100
AcDbLinetypeTableRecord
  2
HIDDEN2
 70
     0
  3
Hidden (.5x) _ _ _ _ _ _ _ _ _ _ _ _ _ _ _ _ _
 72
    65
 73
     2
 40
0.1875
 49
0.125
 74
     0
 49
-0.0625
 74
     0
  0
LTYPE
  5
2923
330
5
100
AcDbSymbolTableRecord
100
AcDbLinetypeTableRecord
  2
Amzigzag2
 70
     0
  3
/\/-/\/-/\/-/\/-/\/-/\/
 72
    65
 73
     2
 40
0.4401
 49
0.0001
 74
     4
 75
   135
340
291F
 46
0.0016
 50
0.0
 44
0.0
 45
0.0
 49
-0.4400000000000001
 74
     0
  0
LTYPE
  5
2931
330
5
100
AcDbSymbolTableRecord
100
AcDbLinetypeTableRecord
  2
ACANSTGB
 70
     0
  3
__ . . __ . .
 72
    65
 73
     6
 40
0.35433070866
 49
0.15748031496
 74
     0
 49
-0.03937007874
 74
     0
 49
0.03937007874
 74
     0
 49
-0.03937007874
 74
     0
 49
0.03937007874
 74
     0
 49
-0.03937007874
 74
     0
  0
LTYPE
  5
2932
330
5
100
AcDbSymbolTableRecord
100
AcDbLinetypeTableRecord
  2
ACANSTGL
 70
     0
  3
_ _ _ _ _
 72
    65
 73
     2
 40
0.11811023622
 49
0.07874015748
 74
     0
 49
-0.03937007874
 74
     0
  0
ENDTAB
  0
TABLE
  2
LAYER
  5
2
330
0
100
AcDbSymbolTable
 70
    19
  0
LAYER
  5
F
330
2
100
AcDbSymbolTableRecord
100
AcDbLayerTableRecord
  2
0
 70
     0
 62
     7
  6
CONTINUOUS
370
    -3
390
190B
  0
LAYER
  5
37
330
2
100
AcDbSymbolTableRecord
100
AcDbLayerTableRecord
  2
VITE
 70
     0
 62
    30
  6
CONTINUOUS
370
    -3
390
190B
  0
LAYER
  5
38
330
2
100
AcDbSymbolTableRecord
100
AcDbLayerTableRecord
  2
FILETTO
 70
     0
 62
     3
  6
CONTINUOUS
370
    -3
390
190B
  0
LAYER
  5
39
330
2
100
AcDbSymbolTableRecord
100
AcDbLayerTableRecord
  2
ASSE
 70
     0
 62
     1
  6
ASSI5
370
    -3
390
190B
  0
LAYER
  5
3A
330
2
100
AcDbSymbolTableRecord
100
AcDbLayerTableRecord
  2
NASCOSTO
 70
     0
 62
     6
  6
TRATTINO
370
    -3
390
190B
  0
LAYER
  5
3B
330
2
100
AcDbSymbolTableRecord
100
AcDbLayerTableRecord
  2
COSTRUZIONE
 70
     0
 62
     7
  6
CONTINUOUS
370
    -3
390
190B
  0
LAYER
  5
3C
330
2
100
AcDbSymbolTableRecord
100
AcDbLayerTableRecord
  2
CUSCINETTO
 70
     0
 62
   240
  6
CONTINUOUS
370
    -3
390
190B
  0
LAYER
  5
3D
330
2
100
AcDbSymbolTableRecord
100
AcDbLayerTableRecord
  2
SEZIONE
 70
     0
 62
     4
  6
CONTINUOUS
370
    -3
390
190B
  0
LAYER
  5
3E
330
2
100
AcDbSymbolTableRecord
100
AcDbLayerTableRecord
  2
SPINA
 70
     0
 62
     7
  6
CONTINUOUS
370
    -3
390
190B
  0
LAYER
  5
3F
330
2
100
AcDbSymbolTableRecord
100
AcDbLayerTableRecord
  2
SALDATURA
 70
     0
 62
     2
  6
CONTINUOUS
370
    -3
390
190B
  0
LAYER
  5
40
330
2
100
AcDbSymbolTableRecord
100
AcDbLayerTableRecord
  2
SIMBOLO
 70
     0
 62
     4
  6
CONTINUOUS
370
    -3
390
190B
  0
LAYER
  5
41
330
2
100
AcDbSymbolTableRecord
100
AcDbLayerTableRecord
  2
BOLLINI
 70
     0
 62
     4
  6
CONTINUOUS
370
    -3
390
190B
  0
LAYER
  5
42
330
2
100
AcDbSymbolTableRecord
100
AcDbLayerTableRecord
  2
DISTINTA
 70
     0
 62
     7
  6
CONTINUOUS
370
    -3
390
190B
  0
LAYER
  5
43
330
2
100
AcDbSymbolTableRecord
100
AcDbLayerTableRecord
  2
TESTO
 70
     0
 62
   254
  6
CONTINUOUS
370
    -3
390
190B
  0
LAYER
  5
44
330
2
100
AcDbSymbolTableRecord
100
AcDbLayerTableRecord
  2
LINEAFIN
 70
     0
 62
     3
  6
CONTINUOUS
370
    -3
390
190B
  0
LAYER
  5
45
330
2
100
AcDbSymbolTableRecord
100
AcDbLayerTableRecord
  2
SQUADRATURA
 70
     0
 62
     9
  6
CONTINUOUS
370
    -3
390
190B
  0
LAYER
  5
46
330
2
100
AcDbSymbolTableRecord
100
AcDbLayerTableRecord
  2
CARTIGLIO
 70
     0
 62
     9
  6
CONTINUOUS
370
    -3
390
190B
  0
LAYER
  5
47
330
2
100
AcDbSymbolTableRecord
100
AcDbLayerTableRecord
  2
QUOTA
 70
     0
 62
     3
  6
CONTINUOUS
370
    -3
390
190B
  0
LAYER
  5
119
330
2
100
AcDbSymbolTableRecord
100
AcDbLayerTableRecord
  2
DEFPOINTS
 70
     0
 62
     7
  6
CONTINUOUS
290
     0
370
    -3
390
190B
  0
ENDTAB
  0
TABLE
  2
STYLE
  5
3
330
0
100
AcDbSymbolTable
 70
     7
  0
STYLE
  5
10
330
3
100
AcDbSymbolTableRecord
100
AcDbTextStyleTableRecord
  2
STANDARD
 70
     0
 40
0.0
 41
1.0
 50
0.0
 71
     0
 42
50.0
  3
txt
  4

  0
STYLE
  5
DE7
330
3
100
AcDbSymbolTableRecord
100
AcDbTextStyleTableRecord
  2
SANSSERIFBOLD
 70
     0
 40
0.0
 41
1.0
 50
0.0
 71
     0
 42
40.0
  3
sasb____.pfb
  4

  0
STYLE
  5
DE8
330
3
100
AcDbSymbolTableRecord
100
AcDbTextStyleTableRecord
  2
ROMANS
 70
     0
 40
0.0
 41
0.8
 50
0.0
 71
     0
 42
60.0
  3
romans
  4

  0
STYLE
  5
10B4
330
3
100
AcDbSymbolTableRecord
100
AcDbTextStyleTableRecord
  2
ROMANC
 70
     0
 40
60.0
 41
1.0
 50
0.0
 71
     0
 42
60.0
  3
romanc
  4

  0
STYLE
  5
291F
330
3
100
AcDbSymbolTableRecord
100
AcDbTextStyleTableRecord
  2

 70
     1
 40
0.0
 41
1.0
 50
0.0
 71
     0
 42
50.0
  3
ltypeshp.shx
  4

  0
STYLE
  5
2924
330
3
100
AcDbSymbolTableRecord
100
AcDbTextStyleTableRecord
  2
ACANSTS
 70
     0
 40
1.0
 41
1.0
 50
0.0
 71
     0
 42
50.0
  3
romans.shx
  4

  0
STYLE
  5
2930
330
3
100
AcDbSymbolTableRecord
100
AcDbTextStyleTableRecord
  2
ACANSGDT
 70
     0
 40
0.0
 41
1.0
 50
0.0
 71
     0
 42
50.0
  3
amgdtans.shx
  4

  0
ENDTAB
  0
TABLE
  2
VIEW
  5
6
330
0
100
AcDbSymbolTable
 70
     0
  0
ENDTAB
  0
TABLE
  2
UCS
  5
7
330
0
100
AcDbSymbolTable
 70
     0
  0
ENDTAB
  0
TABLE
  2
APPID
  5
9
330
0
100
AcDbSymbolTable
 70
     9
  0
APPID
  5
11
330
9
100
AcDbSymbolTableRecord
100
AcDbRegAppTableRecord
  2
ACAD
 70
     0
  0
APPID
  5
28B5
330
9
100
AcDbSymbolTableRecord
100
AcDbRegAppTableRecord
  2
MCAD_NO_VIS
 70
     0
  0
APPID
  5
28B6
330
9
100
AcDbSymbolTableRecord
100
AcDbRegAppTableRecord
  2
ACAD_TEMP_GRAPHIC
 70
     0
  0
APPID
  5
28E6
330
9
100
AcDbSymbolTableRecord
100
AcDbRegAppTableRecord
  2
AD_DRAW
 70
     0
  0
APPID
  5
28E9
330
9
100
AcDbSymbolTableRecord
100
AcDbRegAppTableRecord
  2
ACATTRIBSERVICES
 70
     0
  0
APPID
  5
2907
330
9
100
AcDbSymbolTableRecord
100
AcDbRegAppTableRecord
  2
DESIGNERASSEMBLIES
 70
     0
  0
APPID
  5
290D
330
9
100
AcDbSymbolTableRecord
100
AcDbRegAppTableRecord
  2
ACADM_DIM_EDIT
 70
     0
  0
APPID
  5
290E
330
9
100
AcDbSymbolTableRecord
100
AcDbRegAppTableRecord
  2
AMDT_DM_ADJ
 70
     0
  0
APPID
  5
2950
330
9
100
AcDbSymbolTableRecord
100
AcDbRegAppTableRecord
  2
GENIUS_GENDIMSH_14
 70
     0
  0
ENDTAB
  0
TABLE
  2
DIMSTYLE
  5
A
330
0
100
AcDbSymbolTable
 70
     8
100
AcDbDimStyleTable
 71
     1
340
10F
  0
DIMSTYLE
105
1D
330
A
100
AcDbSymbolTableRecord
100
AcDbDimStyleTableRecord
  2
STANDARD
 70
     0
 40
50.0
 42
0.06
 73
     0
 74
     0
 77
     2
340
10
  0
DIMSTYLE
105
10F
330
A
100
AcDbSymbolTableRecord
100
AcDbDimStyleTableRecord
  2
BASE
 70
     0
 40
150.0
 42
0.06
 73
     0
 74
     0
 77
     1
340
10
  0
DIMSTYLE
105
293B
330
A
100
AcDbSymbolTableRecord
100
AcDbDimStyleTableRecord
  2
AM_ANSI
 70
     0
  4
mm
 41
0.1
 42
0.05
 43
0.5
 44
0.1
 47
0.1
 48
0.1
 78
     7
 79
     2
140
0.12
141
0.0
146
0.71
147
0.06
176
   256
177
   256
178
     2
274
     4
284
     7
340
10
371
    -1
372
    -1
  0
DIMSTYLE
105
293C
330
A
100
AcDbSymbolTableRecord
100
AcDbDimStyleTableRecord
  2
AM_ANSI$3
 70
     0
  4
mm
 41
0.1
 42
0.05
 43
0.5
 44
0.1
 47
0.1
 48
0.1
 78
     7
 79
     2
140
0.12
141
0.0
146
0.71
147
0.06
176
   256
177
   256
178
     2
274
     4
284
     7
288
     1
289
     0
340
10
371
    -1
372
    -1
  0
DIMSTYLE
105
293D
330
A
100
AcDbSymbolTableRecord
100
AcDbDimStyleTableRecord
  2
AM_ANSI$4
 70
     0
  4
mm
 41
0.1
 42
0.05
 43
0.5
 44
0.1
 47
0.1
 48
0.1
 78
     7
 79
     2
140
0.12
141
0.0
146
0.71
147
0.06
176
   256
177
   256
178
     2
274
     4
284
     7
288
     1
289
     0
340
10
371
    -1
372
    -1
  0
DIMSTYLE
105
293E
330
A
100
AcDbSymbolTableRecord
100
AcDbDimStyleTableRecord
  2
AM_ANSI$7
 70
     0
  4
mm
 41
0.1
 42
0.05
 43
0.5
 44
0.1
 47
0.1
 48
0.1
 78
     7
 79
     2
140
0.24
141
0.0
146
0.71
147
0.06
176
   256
177
   256
178
     2
274
     4
284
     7
340
10
371
    -1
372
    -1
  0
DIMSTYLE
105
293F
330
A
100
AcDbSymbolTableRecord
100
AcDbDimStyleTableRecord
  2
AM_ANSI$SF
 70
     0
  4
mm
 41
0.1
 42
0.05
 43
0.5
 44
0.1
 47
0.1
 48
0.1
 75
     1
 76
     1
 78
     7
 79
     2
140
0.12
141
0.0
146
0.71
147
0.06
176
   256
177
   256
178
     2
274
     4
284
     7
340
10
371
    -1
372
    -1
  0
DIMSTYLE
105
2944
330
A
100
AcDbSymbolTableRecord
100
AcDbDimStyleTableRecord
  2
AM_ANSI$SH
 70
     0
  4
mm
 41
0.1
 42
0.05
 43
0.5
 44
0.1
 47
0.1
 48
0.1
 75
     1
 76
     1
 78
     7
 79
     2
140
0.12
141
0.0
146
0.71
147
0.06
173
     1
176
   256
177
   256
178
     2
274
     4
284
     7
340
10
343
2940
371
    -1
372
    -1
  0
ENDTAB
  0
TABLE
  2
BLOCK_RECORD
  5
1
330
0
100
AcDbSymbolTable
 70
    20
  0
BLOCK_RECORD
  5
1A
330
1
100
AcDbSymbolTableRecord
100
AcDbBlockTableRecord
  2
*MODEL_SPACE
340
190E
  0
BLOCK_RECORD
  5
17
330
1
100
AcDbSymbolTableRecord
100
AcDbBlockTableRecord
  2
*PAPER_SPACE
340
190F
  0
BLOCK_RECORD
  5
28
330
1
100
AcDbSymbolTableRecord
100
AcDbBlockTableRecord
  2
FR0
340
0
  0
BLOCK_RECORD
  5
2D
330
1
100
AcDbSymbolTableRecord
100
AcDbBlockTableRecord
  2
FR1
340
0
  0
BLOCK_RECORD
  5
D8C
330
1
100
AcDbSymbolTableRecord
100
AcDbBlockTableRecord
  2
*X2
340
0
102
{BLKREFS
331
EB0
102
}
  0
BLOCK_RECORD
  5
DE9
330
1
100
AcDbSymbolTableRecord
100
AcDbBlockTableRecord
  2
A$C3
340
0
  0
BLOCK_RECORD
  5
EC8
330
1
100
AcDbSymbolTableRecord
100
AcDbBlockTableRecord
  2
A$C4
340
0
  0
BLOCK_RECORD
  5
10B5
330
1
100
AcDbSymbolTableRecord
100
AcDbBlockTableRecord
  2
A$C2
340
0
  0
BLOCK_RECORD
  5
114F
330
1
100
AcDbSymbolTableRecord
100
AcDbBlockTableRecord
  2
A$C5
340
0
  0
BLOCK_RECORD
  5
1605
330
1
100
AcDbSymbolTableRecord
100
AcDbBlockTableRecord
  2
A$C6
340
0
  0
BLOCK_RECORD
  5
16C1
330
1
100
AcDbSymbolTableRecord
100
AcDbBlockTableRecord
  2
A$C19
340
0
  0
BLOCK_RECORD
  5
197E
330
1
100
AcDbSymbolTableRecord
100
AcDbBlockTableRecord
  2
*X9
340
0
102
{BLKREFS
331
1ABC
102
}
  0
BLOCK_RECORD
  5
19D8
330
1
100
AcDbSymbolTableRecord
100
AcDbBlockTableRecord
  2
*X10
340
0
102
{BLKREFS
331
1B3D
102
}
  0
BLOCK_RECORD
  5
1A59
330
1
100
AcDbSymbolTableRecord
100
AcDbBlockTableRecord
  2
A$C1B021DEF
340
0
  0
BLOCK_RECORD
  5
1C89
330
1
100
AcDbSymbolTableRecord
100
AcDbBlockTableRecord
  2
*X12
340
0
102
{BLKREFS
331
21E3
102
}
  0
BLOCK_RECORD
  5
2444
330
1
100
AcDbSymbolTableRecord
100
AcDbBlockTableRecord
  2
*D13
340
0
  0
BLOCK_RECORD
  5
2450
330
1
100
AcDbSymbolTableRecord
100
AcDbBlockTableRecord
  2
*D14
340
0
  0
BLOCK_RECORD
  5
245C
330
1
100
AcDbSymbolTableRecord
100
AcDbBlockTableRecord
  2
*D15
340
0
  0
BLOCK_RECORD
  5
2474
330
1
100
AcDbSymbolTableRecord
100
AcDbBlockTableRecord
  2
*D16
340
0
  0
BLOCK_RECORD
  5
272B
330
1
100
AcDbSymbolTableRecord
100
AcDbBlockTableRecord
  2
*D17
340
0
  0
BLOCK_RECORD
  5
2940
330
1
100
AcDbSymbolTableRecord
100
AcDbBlockTableRecord
  2
GENAXEH
340
0
  0
ENDTAB
  0
ENDSEC
  0
SECTION
  2
BLOCKS
  0
BLOCK
  5
1B
330
1A
100
AcDbEntity
  8
0
100
AcDbBlockBegin
  2
*MODEL_SPACE
 70
     0
 10
0.0
 20
0.0
 30
0.0
  3
*MODEL_SPACE
  1

  0
ENDBLK
  5
1C
330
1A
100
AcDbEntity
  8
0
100
AcDbBlockEnd
  0
BLOCK
  5
18
330
17
100
AcDbEntity
 67
     1
  8
0
100
AcDbBlockBegin
  2
*PAPER_SPACE
 70
     0
 10
0.0
 20
0.0
 30
0.0
  3
*PAPER_SPACE
  1

  0
ENDBLK
  5
19
330
17
100
AcDbEntity
 67
     1
  8
0
100
AcDbBlockEnd
  0
BLOCK
  5
2A
330
28
100
AcDbEntity
  8
0
100
AcDbBlockBegin
  2
FR0
 70
     0
 10
0.0
 20
0.0
 30
0.0
  3
FR0
  1

  0
LINE
  5
29
330
28
100
AcDbEntity
  8
0
 62
     0
100
AcDbLine
 10
-1.0
 20
0.0
 30
0.0
 11
0.0
 21
0.0
 31
0.0
  0
ENDBLK
  5
2B
330
28
100
AcDbEntity
  8
0
100
AcDbBlockEnd
  0
BLOCK
  5
2F
330
2D
100
AcDbEntity
  8
0
100
AcDbBlockBegin
  2
FR1
 70
     0
 10
0.0
 20
0.0
 30
0.0
  3
FR1
  1

  0
SOLID
  5
2E
330
2D
100
AcDbEntity
  8
0
  6
ByBlock
 62
     0
100
AcDbTrace
 10
-1.0
 20
0.1666666666666572
 30
0.0
 11
-1.0
 21
-0.1666666666666572
 31
0.0
 12
0.0
 22
0.0
 32
0.0
 13
0.0
 23
0.0
 33
0.0
  0
ENDBLK
  5
30
330
2D
100
AcDbEntity
  8
0
100
AcDbBlockEnd
  0
BLOCK
  5
DE4
330
D8C
100
AcDbEntity
  8
0
100
AcDbBlockBegin
  2
*X2
 70
     1
 10
0.0
 20
0.0
 30
0.0
  3
*X2
  1

  0
LINE
  5
D8D
330
D8C
100
AcDbEntity
  8
0
 62
     0
100
AcDbLine
 10
2712.260624128367
 20
1999.496988692327
 30
0.0
 11
2712.461612631596
 21
1999.697977195557
 31
0.0
  0
LINE
  5
D8E
330
D8C
100
AcDbEntity
  8
0
 62
     0
100
AcDbLine
 10
2715.290039756343
 20
2002.526404320303
 30
0.0
 11
2723.775321130581
 21
2011.011685694542
 31
0.0
  0
LINE
  5
D8F
330
D8C
100
AcDbEntity
  8
0
 62
     0
100
AcDbLine
 10
2726.603748255328
 20
2013.840112819288
 30
0.0
 11
2731.635890503999
 21
2018.872255067959
 31
0.0
  0
LINE
  5
D90
330
D8C
100
AcDbEntity
  8
0
 62
     0
100
AcDbLine
 10
2731.635890504
 20
2018.87225506796
 30
0.0
 11
2735.089029629566
 21
2022.325394193526
 31
0.0
  0
LINE
  5
D91
330
D8C
100
AcDbEntity
  8
0
 62
     0
100
AcDbLine
 10
2706.603769878874
 20
1999.496988692327
 30
0.0
 11
2712.461612631596
 21
2005.354831445049
 31
0.0
  0
LINE
  5
D92
330
D8C
100
AcDbEntity
  8
0
 62
     0
100
AcDbLine
 10
2715.290039756343
 20
2008.183258569796
 30
0.0
 11
2723.775321130581
 21
2016.668539944034
 31
0.0
  0
LINE
  5
D93
330
D8C
100
AcDbEntity
  8
0
 62
     0
100
AcDbLine
 10
2726.603748255328
 20
2019.49696706878
 30
0.0
 11
2729.795766271061
 21
2022.688985084514
 31
0.0
  0
LINE
  5
D94
330
D8C
100
AcDbEntity
  8
0
 62
     0
100
AcDbLine
 10
2700.946915629382
 20
1999.496988692327
 30
0.0
 11
2701.147904132612
 21
1999.697977195556
 31
0.0
  0
LINE
  5
D95
330
D8C
100
AcDbEntity
  8
0
 62
     0
100
AcDbLine
 10
2703.976331257358
 20
2002.526404320303
 30
0.0
 11
2712.461612631597
 21
2011.011685694541
 31
0.0
  0
LINE
  5
D96
330
D8C
100
AcDbEntity
  8
0
 62
     0
100
AcDbLine
 10
2715.290039756343
 20
2013.840112819288
 30
0.0
 11
2723.775321130582
 21
2022.325394193527
 31
0.0
  0
LINE
  5
D97
330
D8C
100
AcDbEntity
  8
0
 62
     0
100
AcDbLine
 10
2695.29006137989
 20
1999.496988692327
 30
0.0
 11
2701.147904132612
 21
2005.354831445049
 31
0.0
  0
LINE
  5
D98
330
D8C
100
AcDbEntity
  8
0
 62
     0
100
AcDbLine
 10
2703.976331257358
 20
2008.183258569795
 30
0.0
 11
2712.461612631596
 21
2016.668539944034
 31
0.0
  0
LINE
  5
D99
330
D8C
100
AcDbEntity
  8
0
 62
     0
100
AcDbLine
 10
2715.290039756343
 20
2019.49696706878
 30
0.0
 11
2718.482057772076
 21
2022.688985084514
 31
0.0
  0
LINE
  5
D9A
330
D8C
100
AcDbEntity
  8
0
 62
     0
100
AcDbLine
 10
2692.662622758373
 20
2002.526404320303
 30
0.0
 11
2701.147904132612
 21
2011.011685694541
 31
0.0
  0
LINE
  5
D9B
330
D8C
100
AcDbEntity
  8
0
 62
     0
100
AcDbLine
 10
2703.976331257358
 20
2013.840112819288
 30
0.0
 11
2712.461612631596
 21
2022.325394193526
 31
0.0
  0
LINE
  5
D9C
330
D8C
100
AcDbEntity
  8
0
 62
     0
100
AcDbLine
 10
2687.122353954997
 20
2002.642989766419
 30
0.0
 11
2689.834195633627
 21
2005.354831445049
 31
0.0
  0
LINE
  5
D9D
330
D8C
100
AcDbEntity
  8
0
 62
     0
100
AcDbLine
 10
2692.662622758374
 20
2008.183258569795
 30
0.0
 11
2701.147904132612
 21
2016.668539944034
 31
0.0
  0
LINE
  5
D9E
330
D8C
100
AcDbEntity
  8
0
 62
     0
100
AcDbLine
 10
2703.976331257358
 20
2019.49696706878
 30
0.0
 11
2707.168349273092
 21
2022.688985084514
 31
0.0
  0
LINE
  5
D9F
330
D8C
100
AcDbEntity
  8
0
 62
     0
100
AcDbLine
 10
2686.765918101505
 20
2007.943408162419
 30
0.0
 11
2689.834195633627
 21
2011.011685694541
 31
0.0
  0
LINE
  5
DA0
330
D8C
100
AcDbEntity
  8
0
 62
     0
100
AcDbLine
 10
2692.662622758374
 20
2013.840112819288
 30
0.0
 11
2701.147904132612
 21
2022.325394193526
 31
0.0
  0
LINE
  5
DA1
330
D8C
100
AcDbEntity
  8
0
 62
     0
100
AcDbLine
 10
2686.765918101505
 20
2013.600262411912
 30
0.0
 11
2689.834195633627
 21
2016.668539944034
 31
0.0
  0
LINE
  5
DA2
330
D8C
100
AcDbEntity
  8
0
 62
     0
100
AcDbLine
 10
2692.662622758374
 20
2019.49696706878
 30
0.0
 11
2695.854640774107
 21
2022.688985084514
 31
0.0
  0
LINE
  5
DA3
330
D8C
100
AcDbEntity
  8
0
 62
     0
100
AcDbLine
 10
2686.765918101505
 20
2019.257116661404
 30
0.0
 11
2689.834195633627
 21
2022.325394193526
 31
0.0
  0
LINE
  5
DA4
330
D8C
100
AcDbEntity
  8
0
 62
     0
100
AcDbLine
 10
2717.917478377859
 20
1999.496988692327
 30
0.0
 11
2723.775321130581
 21
2005.354831445049
 31
0.0
  0
LINE
  5
DA5
330
D8C
100
AcDbEntity
  8
0
 62
     0
100
AcDbLine
 10
2726.603748255328
 20
2008.183258569796
 30
0.0
 11
2731.635890503999
 21
2013.215400818467
 31
0.0
  0
LINE
  5
DA6
330
D8C
100
AcDbEntity
  8
0
 62
     0
100
AcDbLine
 10
2731.635890504
 20
2013.215400818467
 30
0.0
 11
2735.089029629566
 21
2016.668539944033
 31
0.0
  0
LINE
  5
DA7
330
D8C
100
AcDbEntity
  8
0
 62
     0
100
AcDbLine
 10
2737.917456754312
 20
2019.496967068779
 30
0.0
 11
2741.109474770046
 21
2022.688985084513
 31
0.0
  0
LINE
  5
DA8
330
D8C
100
AcDbEntity
  8
0
 62
     0
100
AcDbLine
 10
2723.574332627352
 20
1999.496988692327
 30
0.0
 11
2723.775321130581
 21
1999.697977195557
 31
0.0
  0
LINE
  5
DA9
330
D8C
100
AcDbEntity
  8
0
 62
     0
100
AcDbLine
 10
2726.603748255328
 20
2002.526404320303
 30
0.0
 11
2731.635890503999
 21
2007.558546568975
 31
0.0
  0
LINE
  5
DAA
330
D8C
100
AcDbEntity
  8
0
 62
     0
100
AcDbLine
 10
2731.635890504
 20
2007.558546568975
 30
0.0
 11
2735.089029629566
 21
2011.011685694541
 31
0.0
  0
LINE
  5
DAB
330
D8C
100
AcDbEntity
  8
0
 62
     0
100
AcDbLine
 10
2737.917456754312
 20
2013.840112819288
 30
0.0
 11
2746.402738128551
 21
2022.325394193526
 31
0.0
  0
LINE
  5
DAC
330
D8C
100
AcDbEntity
  8
0
 62
     0
100
AcDbLine
 10
2729.231186876844
 20
1999.496988692327
 30
0.0
 11
2731.635890504
 21
2001.901692319482
 31
0.0
  0
LINE
  5
DAD
330
D8C
100
AcDbEntity
  8
0
 62
     0
100
AcDbLine
 10
2731.635890504
 20
2001.901692319483
 30
0.0
 11
2735.089029629566
 21
2005.354831445049
 31
0.0
  0
LINE
  5
DAE
330
D8C
100
AcDbEntity
  8
0
 62
     0
100
AcDbLine
 10
2737.917456754312
 20
2008.183258569795
 30
0.0
 11
2746.402738128551
 21
2016.668539944034
 31
0.0
  0
LINE
  5
DAF
330
D8C
100
AcDbEntity
  8
0
 62
     0
100
AcDbLine
 10
2749.231165253297
 20
2019.49696706878
 30
0.0
 11
2752.423183269031
 21
2022.688985084514
 31
0.0
  0
LINE
  5
DB0
330
D8C
100
AcDbEntity
  8
0
 62
     0
100
AcDbLine
 10
2734.888041126337
 20
1999.496988692327
 30
0.0
 11
2735.089029629566
 21
1999.697977195557
 31
0.0
  0
LINE
  5
DB1
330
D8C
100
AcDbEntity
  8
0
 62
     0
100
AcDbLine
 10
2737.917456754312
 20
2002.526404320303
 30
0.0
 11
2746.402738128551
 21
2011.011685694542
 31
0.0
  0
LINE
  5
DB2
330
D8C
100
AcDbEntity
  8
0
 62
     0
100
AcDbLine
 10
2749.231165253297
 20
2013.840112819288
 30
0.0
 11
2757.716446627536
 21
2022.325394193527
 31
0.0
  0
LINE
  5
DB3
330
D8C
100
AcDbEntity
  8
0
 62
     0
100
AcDbLine
 10
2740.544895375829
 20
1999.496988692327
 30
0.0
 11
2746.402738128551
 21
2005.354831445049
 31
0.0
  0
LINE
  5
DB4
330
D8C
100
AcDbEntity
  8
0
 62
     0
100
AcDbLine
 10
2749.231165253297
 20
2008.183258569796
 30
0.0
 11
2757.716446627536
 21
2016.668539944034
 31
0.0
  0
LINE
  5
DB5
330
D8C
100
AcDbEntity
  8
0
 62
     0
100
AcDbLine
 10
2760.544873752282
 20
2019.49696706878
 30
0.0
 11
2763.736891768016
 21
2022.688985084514
 31
0.0
  0
LINE
  5
DB6
330
D8C
100
AcDbEntity
  8
0
 62
     0
100
AcDbLine
 10
2746.201749625322
 20
1999.496988692327
 30
0.0
 11
2746.402738128551
 21
1999.697977195557
 31
0.0
  0
LINE
  5
DB7
330
D8C
100
AcDbEntity
  8
0
 62
     0
100
AcDbLine
 10
2749.231165253297
 20
2002.526404320303
 30
0.0
 11
2757.716446627536
 21
2011.011685694542
 31
0.0
  0
LINE
  5
DB8
330
D8C
100
AcDbEntity
  8
0
 62
     0
100
AcDbLine
 10
2760.544873752282
 20
2013.840112819288
 30
0.0
 11
2761.021022527084
 21
2014.31626159409
 31
0.0
  0
LINE
  5
DB9
330
D8C
100
AcDbEntity
  8
0
 62
     0
100
AcDbLine
 10
2751.858603874814
 20
1999.496988692327
 30
0.0
 11
2755.915954095707
 21
2003.55433891322
 31
0.0
  0
LINE
  5
DBA
330
D8C
100
AcDbEntity
  8
0
 62
     0
100
AcDbLine
 10
2735.290018133304
 20
1999.496988692327
 30
0.0
 11
2732.260602505074
 21
2002.526404320557
 31
0.0
  0
LINE
  5
DBB
330
D8C
100
AcDbEntity
  8
0
 62
     0
100
AcDbLine
 10
2729.432175380328
 20
2005.354831445303
 30
0.0
 11
2720.94689400609
 21
2013.840112819542
 31
0.0
  0
LINE
  5
DBC
330
D8C
100
AcDbEntity
  8
0
 62
     0
100
AcDbLine
 10
2718.118466881343
 20
2016.668539944288
 30
0.0
 11
2712.098021741117
 21
2022.688985084514
 31
0.0
  0
LINE
  5
DBD
330
D8C
100
AcDbEntity
  8
0
 62
     0
100
AcDbLine
 10
2740.745883879313
 20
1999.697977195809
 30
0.0
 11
2732.260602505074
 21
2008.183258570047
 31
0.0
  0
LINE
  5
DBE
330
D8C
100
AcDbEntity
  8
0
 62
     0
100
AcDbLine
 10
2729.432175380328
 20
2011.011685694795
 30
0.0
 11
2720.94689400609
 21
2019.496967069033
 31
0.0
  0
LINE
  5
DBF
330
D8C
100
AcDbEntity
  8
0
 62
     0
100
AcDbLine
 10
2718.118466881343
 20
2022.325394193779
 30
0.0
 11
2717.754875990608
 21
2022.688985084514
 31
0.0
  0
LINE
  5
DC0
330
D8C
100
AcDbEntity
  8
0
 62
     0
100
AcDbLine
 10
2746.603726632287
 20
1999.496988692327
 30
0.0
 11
2743.574311004059
 21
2002.526404320556
 31
0.0
  0
LINE
  5
DC1
330
D8C
100
AcDbEntity
  8
0
 62
     0
100
AcDbLine
 10
2740.745883879312
 20
2005.354831445302
 30
0.0
 11
2732.260602505073
 21
2013.84011281954
 31
0.0
  0
LINE
  5
DC2
330
D8C
100
AcDbEntity
  8
0
 62
     0
100
AcDbLine
 10
2729.432175380328
 20
2016.668539944287
 30
0.0
 11
2723.411730240101
 21
2022.688985084514
 31
0.0
  0
LINE
  5
DC3
330
D8C
100
AcDbEntity
  8
0
 62
     0
100
AcDbLine
 10
2752.059592378297
 20
1999.697977195809
 30
0.0
 11
2743.574311004059
 21
2008.183258570048
 31
0.0
  0
LINE
  5
DC4
330
D8C
100
AcDbEntity
  8
0
 62
     0
100
AcDbLine
 10
2740.745883879312
 20
2011.011685694794
 30
0.0
 11
2732.260602505073
 21
2019.496967069033
 31
0.0
  0
LINE
  5
DC5
330
D8C
100
AcDbEntity
  8
0
 62
     0
100
AcDbLine
 10
2729.432175380328
 20
2022.32539419378
 30
0.0
 11
2729.068584489593
 21
2022.688985084514
 31
0.0
  0
LINE
  5
DC6
330
D8C
100
AcDbEntity
  8
0
 62
     0
100
AcDbLine
 10
2755.311322949602
 20
2002.103100873998
 30
0.0
 11
2754.888019503044
 21
2002.526404320557
 31
0.0
  0
LINE
  5
DC7
330
D8C
100
AcDbEntity
  8
0
 62
     0
100
AcDbLine
 10
2752.059592378297
 20
2005.354831445302
 30
0.0
 11
2743.574311004059
 21
2013.840112819541
 31
0.0
  0
LINE
  5
DC8
330
D8C
100
AcDbEntity
  8
0
 62
     0
100
AcDbLine
 10
2740.745883879312
 20
2016.668539944288
 30
0.0
 11
2734.725438739086
 21
2022.688985084514
 31
0.0
  0
LINE
  5
DC9
330
D8C
100
AcDbEntity
  8
0
 62
     0
100
AcDbLine
 10
2757.00720871049
 20
2006.064069362603
 30
0.0
 11
2754.888019503044
 21
2008.183258570049
 31
0.0
  0
LINE
  5
DCA
330
D8C
100
AcDbEntity
  8
0
 62
     0
100
AcDbLine
 10
2752.059592378297
 20
2011.011685694795
 30
0.0
 11
2743.574311004059
 21
2019.496967069033
 31
0.0
  0
LINE
  5
DCB
330
D8C
100
AcDbEntity
  8
0
 62
     0
100
AcDbLine
 10
2740.745883879312
 20
2022.32539419378
 30
0.0
 11
2740.382292988579
 21
2022.688985084514
 31
0.0
  0
LINE
  5
DCC
330
D8C
100
AcDbEntity
  8
0
 62
     0
100
AcDbLine
 10
2758.802332020171
 20
2009.925800302414
 30
0.0
 11
2754.888019503044
 21
2013.840112819541
 31
0.0
  0
LINE
  5
DCD
330
D8C
100
AcDbEntity
  8
0
 62
     0
100
AcDbLine
 10
2752.059592378297
 20
2016.668539944287
 30
0.0
 11
2746.039147238071
 21
2022.688985084514
 31
0.0
  0
LINE
  5
DCE
330
D8C
100
AcDbEntity
  8
0
 62
     0
100
AcDbLine
 10
2760.693435000926
 20
2013.691551571151
 30
0.0
 11
2754.888019503044
 21
2019.496967069033
 31
0.0
  0
LINE
  5
DCF
330
D8C
100
AcDbEntity
  8
0
 62
     0
100
AcDbLine
 10
2752.059592378298
 20
2022.32539419378
 30
0.0
 11
2751.696001487563
 21
2022.688985084514
 31
0.0
  0
LINE
  5
DD0
330
D8C
100
AcDbEntity
  8
0
 62
     0
100
AcDbLine
 10
2762.677684738563
 20
2017.364156083006
 30
0.0
 11
2757.352855737055
 21
2022.688985084514
 31
0.0
  0
LINE
  5
DD1
330
D8C
100
AcDbEntity
  8
0
 62
     0
100
AcDbLine
 10
2763.373300877282
 20
2022.32539419378
 30
0.0
 11
2763.009709986548
 21
2022.688985084514
 31
0.0
  0
LINE
  5
DD2
330
D8C
100
AcDbEntity
  8
0
 62
     0
100
AcDbLine
 10
2729.432175380328
 20
1999.69797719581
 30
0.0
 11
2720.94689400609
 21
2008.183258570049
 31
0.0
  0
LINE
  5
DD3
330
D8C
100
AcDbEntity
  8
0
 62
     0
100
AcDbLine
 10
2718.118466881343
 20
2011.011685694795
 30
0.0
 11
2709.633185507104
 21
2019.496967069034
 31
0.0
  0
LINE
  5
DD4
330
D8C
100
AcDbEntity
  8
0
 62
     0
100
AcDbLine
 10
2706.804758382358
 20
2022.32539419378
 30
0.0
 11
2706.441167491625
 21
2022.688985084514
 31
0.0
  0
LINE
  5
DD5
330
D8C
100
AcDbEntity
  8
0
 62
     0
100
AcDbLine
 10
2723.976309634319
 20
1999.496988692327
 30
0.0
 11
2720.94689400609
 21
2002.526404320557
 31
0.0
  0
LINE
  5
DD6
330
D8C
100
AcDbEntity
  8
0
 62
     0
100
AcDbLine
 10
2718.118466881343
 20
2005.354831445303
 30
0.0
 11
2709.633185507104
 21
2013.840112819542
 31
0.0
  0
LINE
  5
DD7
330
D8C
100
AcDbEntity
  8
0
 62
     0
100
AcDbLine
 10
2706.804758382358
 20
2016.668539944288
 30
0.0
 11
2700.784313242132
 21
2022.688985084514
 31
0.0
  0
LINE
  5
DD8
330
D8C
100
AcDbEntity
  8
0
 62
     0
100
AcDbLine
 10
2718.118466881343
 20
1999.69797719581
 30
0.0
 11
2709.633185507104
 21
2008.183258570049
 31
0.0
  0
LINE
  5
DD9
330
D8C
100
AcDbEntity
  8
0
 62
     0
100
AcDbLine
 10
2706.804758382358
 20
2011.011685694795
 30
0.0
 11
2698.31947700812
 21
2019.496967069034
 31
0.0
  0
LINE
  5
DDA
330
D8C
100
AcDbEntity
  8
0
 62
     0
100
AcDbLine
 10
2695.491049883373
 20
2022.32539419378
 30
0.0
 11
2695.127458992639
 21
2022.688985084514
 31
0.0
  0
LINE
  5
DDB
330
D8C
100
AcDbEntity
  8
0
 62
     0
100
AcDbLine
 10
2712.662601135334
 20
1999.496988692327
 30
0.0
 11
2709.633185507104
 21
2002.526404320557
 31
0.0
  0
LINE
  5
DDC
330
D8C
100
AcDbEntity
  8
0
 62
     0
100
AcDbLine
 10
2706.804758382358
 20
2005.354831445302
 30
0.0
 11
2698.31947700812
 21
2013.840112819541
 31
0.0
  0
LINE
  5
DDD
330
D8C
100
AcDbEntity
  8
0
 62
     0
100
AcDbLine
 10
2695.491049883373
 20
2016.668539944287
 30
0.0
 11
2689.470604743147
 21
2022.688985084514
 31
0.0
  0
LINE
  5
DDE
330
D8C
100
AcDbEntity
  8
0
 62
     0
100
AcDbLine
 10
2706.804758382358
 20
1999.69797719581
 30
0.0
 11
2698.31947700812
 21
2008.183258570049
 31
0.0
  0
LINE
  5
DDF
330
D8C
100
AcDbEntity
  8
0
 62
     0
100
AcDbLine
 10
2695.491049883373
 20
2011.011685694795
 30
0.0
 11
2687.005768509135
 21
2019.496967069034
 31
0.0
  0
LINE
  5
DE0
330
D8C
100
AcDbEntity
  8
0
 62
     0
100
AcDbLine
 10
2701.348892636349
 20
1999.496988692327
 30
0.0
 11
2698.31947700812
 21
2002.526404320557
 31
0.0
  0
LINE
  5
DE1
330
D8C
100
AcDbEntity
  8
0
 62
     0
100
AcDbLine
 10
2695.491049883373
 20
2005.354831445302
 30
0.0
 11
2687.005768509135
 21
2013.840112819541
 31
0.0
  0
LINE
  5
DE2
330
D8C
100
AcDbEntity
  8
0
 62
     0
100
AcDbLine
 10
2695.491049883373
 20
1999.69797719581
 30
0.0
 11
2687.005768509135
 21
2008.183258570049
 31
0.0
  0
LINE
  5
DE3
330
D8C
100
AcDbEntity
  8
0
 62
     0
100
AcDbLine
 10
2689.484204696917
 20
2000.047968132774
 30
0.0
 11
2687.316897541951
 21
2002.215275287741
 31
0.0
  0
ENDBLK
  5
DE5
330
D8C
100
AcDbEntity
  8
0
100
AcDbBlockEnd
  0
BLOCK
  5
EBE
330
DE9
100
AcDbEntity
  8
0
100
AcDbBlockBegin
  2
A$C3
 70
     0
 10
0.0
 20
0.0
 30
0.0
  3
A$C3
  1

  0
LINE
  5
DEA
330
DE9
100
AcDbEntity
  8
ASSE
100
AcDbLine
 10
710.7356011603784
 20
346.0756045859187
 30
0.0
 11
299.2605013465469
 21
659.3553469035858
 31
0.0
1001
ACAD
1000
ASC_BOUNDS
1002
{
1070
    19
1005
EB0
1002
}
  0
LINE
  5
DEB
330
DE9
100
AcDbEntity
  8
0
100
AcDbLine
 10
704.6290870266672
 20
370.4557445508042
 30
0.0
 11
378.4160750486923
 21
618.8205383849092
 31
0.0
  0
CIRCLE
  5
DEC
330
DE9
100
AcDbEntity
  8
0
100
AcDbCircle
 10
521.0572591774958
 20
453.563361965336
 30
0.0
 40
34.0
  0
CIRCLE
  5
DED
330
DE9
100
AcDbEntity
  8
0
100
AcDbCircle
 10
521.0572591774958
 20
453.563361965336
 30
0.0
 40
44.0
  0
LINE
  5
DEE
330
DE9
100
AcDbEntity
  8
ASSE
100
AcDbLine
 10
569.5277937867509
 20
416.7258484778533
 30
0.0
 11
465.287433182512
 21
496.0900513760886
 31
0.0
  0
LINE
  5
DEF
330
DE9
100
AcDbEntity
  8
ASSE
100
AcDbLine
 10
551.142047521878
 20
493.6017920966085
 30
0.0
 11
397.5246819844585
 21
291.8341311874881
 31
0.0
  0
LINE
  5
DF0
330
DE9
100
AcDbEntity
  8
0
100
AcDbLine
 10
378.1803676556043
 20
378.5665485267052
 30
0.0
 11
306.4118783494438
 21
458.9642444415528
 31
0.0
  0
LINE
  5
DF1
330
DE9
100
AcDbEntity
  8
ASSE
100
AcDbLine
 10
267.068944016493
 20
465.9713254798973
 30
0.0
 11
384.3794764851169
 21
334.5557612371115
 31
0.0
  0
CIRCLE
  5
DF2
330
DE9
100
AcDbEntity
  8
0
100
AcDbCircle
 10
196.4766434983668
 20
545.0514115434978
 30
0.0
 40
140.0
1001
ACAD
1000
ASC_BOUNDS
1002
{
1070
    19
1005
EB0
1002
}
  0
LINE
  5
DF3
330
DE9
100
AcDbEntity
  8
0
100
AcDbLine
 10
562.8566034874799
 20
440.6898946438298
 30
0.0
 11
686.4560533314885
 21
346.5864997719279
 31
0.0
  0
LINE
  5
DF4
330
DE9
100
AcDbEntity
  8
0
100
AcDbLine
 10
112.5320126329112
 20
261.3701317415068
 30
0.0
 11
224.3838918708517
 21
408.2812049992456
 31
0.0
  0
LINE
  5
DF5
330
DE9
100
AcDbEntity
  8
0
100
AcDbLine
 10
186.1815519728494
 20
208.8737958736026
 30
0.0
 11
228.4151437617016
 21
264.3452134260135
 31
0.0
  0
LINE
  5
DF6
330
DE9
100
AcDbEntity
  8
0
100
AcDbLine
 10
212.5023139091178
 20
276.4605692227986
 30
0.0
 11
170.2687221202656
 21
220.9891516703885
 31
0.0
  0
LINE
  5
DF7
330
DE9
100
AcDbEntity
  8
0
100
AcDbLine
 10
135.9857778250385
 20
130.3971540006289
 30
0.0
 11
190.5942675354323
 21
202.1222952052014
 31
0.0
  0
LINE
  5
DF8
330
DE9
100
AcDbEntity
  8
0
100
AcDbLine
 10
430.7886096845938
 20
19.06301580579452
 30
0.0
 11
112.5320126329112
 21
261.3701317415068
 31
0.0
  0
LINE
  5
DF9
330
DE9
100
AcDbEntity
  8
0
100
AcDbLine
 10
112.5320126329112
 20
261.3701317415068
 30
0.0
 11
58.01291154737612
 21
189.7623974048781
 31
0.0
  0
LINE
  5
DFA
330
DE9
100
AcDbEntity
  8
0
100
AcDbLine
 10
58.01291154737612
 20
189.7623974048781
 30
0.0
 11
135.9857778250385
 21
130.3971540006289
 31
0.0
  0
LINE
  5
DFB
330
DE9
100
AcDbEntity
  8
ASSE
100
AcDbLine
 10
159.2949711237458
 20
286.4730677979776
 30
0.0
 11
121.2608406657379
 21
236.5174035384228
 31
0.0
  0
LINE
  5
DFC
330
DE9
100
AcDbEntity
  8
ASSE
100
AcDbLine
 10
137.0069956786225
 20
257.1915586461653
 30
0.0
 11
146.0935125262118
 21
269.1261810356034
 31
0.0
  0
CIRCLE
  5
DFD
330
DE9
100
AcDbEntity
  8
0
100
AcDbCircle
 10
141.5457134777012
 20
263.1604287249986
 30
0.0
 40
14.5
  0
CIRCLE
  5
DFE
330
DE9
100
AcDbEntity
  8
0
100
AcDbCircle
 10
141.5457134777012
 20
263.1604287249986
 30
0.0
 40
13.0
  0
CIRCLE
  5
DFF
330
DE9
100
AcDbEntity
  8
0
100
AcDbCircle
 10
141.5457134777012
 20
263.1604287249986
 30
0.0
 40
11.0
  0
CIRCLE
  5
E00
330
DE9
100
AcDbEntity
  8
VITE
100
AcDbCircle
 10
141.5502541024171
 20
263.1588698408839
 30
0.0
 40
6.5
  0
CIRCLE
  5
E01
330
DE9
100
AcDbEntity
  8
VITE
100
AcDbCircle
 10
141.5502541024171
 20
263.1588698408839
 30
0.0
 40
6.5
  0
CIRCLE
  5
E02
330
DE9
100
AcDbEntity
  8
VITE
100
AcDbCircle
 10
141.5502541024171
 20
263.1588698408839
 30
0.0
 40
5.75
  0
CIRCLE
  5
E03
330
DE9
100
AcDbEntity
  8
VITE
100
AcDbCircle
 10
141.5502541024171
 20
263.1588698408839
 30
0.0
 40
4.978571428571428
  0
LWPOLYLINE
  5
E04
330
DE9
100
AcDbEntity
  8
VITE
100
AcDbPolyline
 90
        6
 70
     1
 43
0.0
 10
148.9952350819527
 20
262.2072441015905
 10
146.0968766573088
 20
269.1305996302069
 10
138.6518956777732
 20
270.0822253695008
 10
134.1052731228816
 20
264.1104955801777
 10
137.0036315475255
 20
257.1871400515613
 10
144.448612527061
 20
256.2355143122675
  0
LINE
  5
E0C
330
DE9
100
AcDbEntity
  8
ASSE
100
AcDbLine
 10
147.5175652971362
 20
258.6156114170897
 30
0.0
 11
135.5829429076981
 21
267.702128264679
 31
0.0
  0
LINE
  5
E0D
330
DE9
100
AcDbEntity
  8
ASSE
100
AcDbLine
 10
166.1728208747678
 20
244.4103904775486
 30
0.0
 11
116.918611582552
 21
281.9104627835211
 31
0.0
  0
LINE
  5
E0E
330
DE9
100
AcDbEntity
  8
0
100
AcDbLine
 10
170.2687221202656
 20
220.9891516703885
 30
0.0
 11
186.1815519728494
 21
208.8737958736026
 31
0.0
  0
LINE
  5
E0F
330
DE9
100
AcDbEntity
  8
0
100
AcDbLine
 10
496.3422846902528
 20
188.2876775216684
 30
0.0
 11
456.5602100587926
 21
218.5760670136326
 31
0.0
  0
LINE
  5
E10
330
DE9
100
AcDbEntity
  8
0
100
AcDbLine
 10
456.5602100587926
 20
218.5760670136326
 30
0.0
 11
429.3955294911608
 21
182.8968061546809
 31
0.0
  0
LINE
  5
E11
330
DE9
100
AcDbEntity
  8
0
100
AcDbLine
 10
458.7118408608181
 20
244.2869419041197
 30
0.0
 11
521.2013709044891
 21
196.7100560160295
 31
0.0
  0
CIRCLE
  5
E12
330
DE9
100
AcDbEntity
  8
0
100
AcDbCircle
 10
332.9491628000661
 20
208.7655966392993
 30
0.0
 40
15.0
  0
CIRCLE
  5
E13
330
DE9
100
AcDbEntity
  8
0
100
AcDbCircle
 10
332.9491628000661
 20
208.7655966392993
 30
0.0
 40
25.0
  0
LINE
  5
E14
330
DE9
100
AcDbEntity
  8
0
100
AcDbLine
 10
242.9684399014319
 20
413.4308460956779
 30
0.0
 11
551.9421676524504
 21
178.1913143316358
 31
0.0
  0
LINE
  5
E15
330
DE9
100
AcDbEntity
  8
ASSE
100
AcDbLine
 10
393.5371429078628
 20
288.0428208662904
 30
0.0
 11
272.9872219519758
 21
129.7073651776966
 31
0.0
  0
LINE
  5
E16
330
DE9
100
AcDbEntity
  8
ASSE
100
AcDbLine
 10
544.5700325206149
 20
200.2738461511269
 30
0.0
 11
506.535902062607
 21
150.3181818915725
 31
0.0
  0
ARC
  5
E17
330
DE9
100
AcDbEntity
  8
0
100
AcDbCircle
 10
332.9491628000661
 20
208.7655966392993
 30
0.0
 40
90.0
100
AcDbArc
 50
5.47578517858246
 51
277.0794417966334
  0
LINE
  5
E18
330
DE9
100
AcDbEntity
  8
0
100
AcDbLine
 10
429.8411134751565
 20
141.3092120023309
 30
0.0
 11
479.031932643206
 21
205.9185514934659
 31
0.0
  0
CIRCLE
  5
E19
330
DE9
100
AcDbEntity
  8
0
100
AcDbCircle
 10
457.4952521815135
 20
177.6305960828456
 30
0.0
 40
21.92606435362723
  0
LINE
  5
E1A
330
DE9
100
AcDbEntity
  8
ASSE
100
AcDbLine
 10
489.2291458308269
 20
219.225771640218
 30
0.0
 11
401.1688387341616
 21
103.563573426665
 31
0.0
  0
LINE
  5
E1B
330
DE9
100
AcDbEntity
  8
ASSE
100
AcDbLine
 10
399.4269561791167
 20
159.134852306706
 30
0.0
 11
252.4493691044669
 21
271.0373723523942
 31
0.0
  0
LINE
  5
E1C
330
DE9
100
AcDbEntity
  8
0
100
AcDbLine
 10
336.4838163535838
 20
109.8567987696954
 30
0.0
 11
410.9874329444306
 21
207.7130560763824
 31
0.0
  0
LINE
  5
E1D
330
DE9
100
AcDbEntity
  8
ASSE
100
AcDbLine
 10
486.4710246596111
 20
155.8775826576
 30
0.0
 11
428.0371736303419
 21
200.3666460331494
 31
0.0
  0
LINE
  5
E1E
330
DE9
100
AcDbEntity
  8
0
100
AcDbLine
 10
407.153410821536
 20
40.96978802749413
 30
0.0
 11
338.7623007870626
 21
93.03988738007342
 31
0.0
  0
ARC
  5
E1F
330
DE9
100
AcDbEntity
  8
0
100
AcDbCircle
 10
346.031514265134
 20
102.587585291624
 30
0.0
 40
12.0
100
AcDbArc
 50
142.7158882877487
 51
232.7158882877487
  0
LINE
  5
E20
330
DE9
100
AcDbEntity
  8
0
100
AcDbLine
 10
498.4975537797668
 20
141.1355466960451
 30
0.0
 11
423.9703222111571
 21
43.24827246097334
 31
0.0
  0
LINE
  5
E21
330
DE9
100
AcDbEntity
  8
0
100
AcDbLine
 10
551.9421676524504
 20
178.1913143316358
 30
0.0
 11
430.7886096845938
 21
19.06301580579452
 31
0.0
  0
ARC
  5
E22
330
DE9
100
AcDbEntity
  8
0
100
AcDbCircle
 10
481.5635396859157
 20
25.44124344244187
 30
0.0
 40
25.12561332754194
100
AcDbArc
 50
232.7158882877487
 51
339.5317367622561
  0
CIRCLE
  5
E23
330
DE9
100
AcDbEntity
  8
0
100
AcDbCircle
 10
481.5614316712841
 20
25.52366250225919
 30
0.0
 40
20.0
  0
CIRCLE
  5
E24
330
DE9
100
AcDbEntity
  8
0
100
AcDbCircle
 10
481.5614316712841
 20
25.52366250225919
 30
0.0
 40
8.0
  0
LINE
  5
E25
330
DE9
100
AcDbEntity
  8
ASSE
100
AcDbLine
 10
512.6702355902849
 20
35.61501265387028
 30
0.0
 11
452.8557372558258
 21
15.89183321061296
 31
0.0
  0
LINE
  5
E26
330
DE9
100
AcDbEntity
  8
0
100
AcDbLine
 10
496.7838269396976
 20
45.43222393359132
 30
0.0
 11
468.9363746976747
 21
66.63409657796615
 31
0.0
  0
LINE
  5
E27
330
DE9
100
AcDbEntity
  8
0
100
AcDbLine
 10
466.3432524321339
 20
5.450262951291961
 30
0.0
 11
438.4958001901119
 21
26.65213559566678
 31
0.0
  0
ARC
  5
E28
330
DE9
100
AcDbEntity
  8
0
100
AcDbCircle
 10
414.4226242996061
 20
50.51748593904472
 30
0.0
 40
12.0
100
AcDbArc
 50
232.7158882877487
 51
322.7158882877487
  0
LINE
  5
E29
330
DE9
100
AcDbEntity
  8
0
100
AcDbLine
 10
499.7417153471957
 20
17.61406267817688
 30
0.0
 11
541.6089051958075
 21
30.15679772838144
 31
0.0
  0
LINE
  5
E2A
330
DE9
100
AcDbEntity
  8
0
100
AcDbLine
 10
542.238880830149
 20
27.99659354387654
 30
0.0
 11
498.1616868332572
 21
14.79177688294089
 31
0.0
  0
LINE
  5
E2B
330
DE9
100
AcDbEntity
  8
0
100
AcDbLine
 10
534.4542765150678
 20
54.03868601461886
 30
0.0
 11
493.3140287673155
 21
41.71373109727824
 31
0.0
  0
LINE
  5
E2C
330
DE9
100
AcDbEntity
  8
0
100
AcDbLine
 10
533.649580300556
 20
56.66736387426112
 30
0.0
 11
489.8711568568574
 21
43.55205405395895
 31
0.0
  0
LINE
  5
E2D
330
DE9
100
AcDbEntity
  8
0
100
AcDbLine
 10
542.2241518955339
 20
27.94777333994375
 30
0.0
 11
533.6303113287746
 21
56.63369814797192
 31
0.0
  0
LINE
  5
E2E
330
DE9
100
AcDbEntity
  8
0
100
AcDbLine
 10
469.1776041226209
 20
152.6084166627167
 30
0.0
 11
496.3422846902528
 21
188.2876775216684
 31
0.0
  0
CIRCLE
  5
E2F
330
DE9
100
AcDbEntity
  8
0
100
AcDbCircle
 10
421.2848221115105
 20
130.0702584206435
 30
0.0
 40
10.77928353839161
  0
ARC
  5
E30
330
DE9
100
AcDbEntity
  8
0
100
AcDbCircle
 10
426.883307065084
 20
138.1944295332553
 30
0.0
 40
15.07660028479595
100
AcDbArc
 50
171.5198702843061
 51
189.7931317466007
  0
LINE
  5
E31
330
DE9
100
AcDbEntity
  8
0
100
AcDbLine
 10
400.4280496305015
 20
102.6768277575881
 30
0.0
 11
429.8411134751565
 21
141.3092120023309
 31
0.0
  0
LINE
  5
E32
330
DE9
100
AcDbEntity
  8
0
100
AcDbLine
 10
447.7469971985389
 20
157.9566422313112
 30
0.0
 11
430.5321994996953
 21
135.3459858607373
 31
0.0
  0
LINE
  5
E33
330
DE9
100
AcDbEntity
  8
0
100
AcDbLine
 10
431.9724138312827
 20
124.0027112275059
 30
0.0
 11
469.1489899168678
 21
152.4797159618781
 31
0.0
  0
ARC
  5
E34
330
DE9
100
AcDbEntity
  8
0
100
AcDbCircle
 10
426.883307065084
 20
138.1944295332553
 30
0.0
 40
15.07660028479595
100
AcDbArc
 50
279.4977948556517
 51
289.7276783169197
  0
LINE
  5
E35
330
DE9
100
AcDbEntity
  8
0
100
AcDbLine
 10
441.3192847546048
 20
162.8504306988004
 30
0.0
 11
424.4013006511246
 21
140.6296220817864
 31
0.0
  0
LINE
  5
E36
330
DE9
100
AcDbEntity
  8
0
100
AcDbLine
 10
411.9715382792443
 20
140.4177216474747
 30
0.0
 11
429.3559976486736
 21
182.776417680813
 31
0.0
  0
CIRCLE
  5
E37
330
DE9
100
AcDbEntity
  8
0
100
AcDbCircle
 10
457.4952521815135
 20
177.6305960828456
 30
0.0
 40
10.0
  0
LINE
  5
E38
330
DE9
100
AcDbEntity
  8
ASSE
100
AcDbLine
 10
532.7926266940063
 20
172.416389770239
 30
0.0
 11
520.8580043045673
 21
181.5029066178283
 31
0.0
  0
CIRCLE
  5
E39
330
DE9
100
AcDbEntity
  8
VITE
100
AcDbCircle
 10
526.8253154992868
 20
176.9596481940336
 30
0.0
 40
4.978571428571428
  0
LINE
  5
E3A
330
DE9
100
AcDbEntity
  8
ASSE
100
AcDbLine
 10
522.2820570754917
 20
170.9923369993146
 30
0.0
 11
531.3685739230819
 21
182.9269593887527
 31
0.0
  0
CIRCLE
  5
E3B
330
DE9
100
AcDbEntity
  8
VITE
100
AcDbCircle
 10
526.8253154992868
 20
176.9596481940336
 30
0.0
 40
5.75
  0
CIRCLE
  5
E3C
330
DE9
100
AcDbEntity
  8
VITE
100
AcDbCircle
 10
526.8253154992868
 20
176.9596481940336
 30
0.0
 40
6.5
  0
CIRCLE
  5
E3D
330
DE9
100
AcDbEntity
  8
VITE
100
AcDbCircle
 10
526.8253154992868
 20
176.9596481940336
 30
0.0
 40
6.5
  0
LWPOLYLINE
  5
E3E
330
DE9
100
AcDbEntity
  8
VITE
100
AcDbPolyline
 90
        6
 70
     1
 43
0.0
 10
534.2702964788219
 20
176.0080224547398
 10
531.3719380541784
 20
182.9313779833567
 10
523.9269570746424
 20
183.8830037226505
 10
519.3803345197507
 20
177.9112739333275
 10
522.2786929443952
 20
170.9879184047106
 10
529.7236739239302
 20
170.0362926654168
  0
LINE
  5
E46
330
DE9
100
AcDbEntity
  8
ASSE
100
AcDbLine
 10
551.447882271637
 20
158.2111688306984
 30
0.0
 11
502.1936729794211
 21
195.7112411366709
 31
0.0
  0
CIRCLE
  5
E47
330
DE9
100
AcDbEntity
  8
0
100
AcDbCircle
 10
526.8207748745704
 20
176.9612070781479
 30
0.0
 40
11.0
  0
ARC
  5
E48
330
DE9
100
AcDbEntity
  8
0
100
AcDbCircle
 10
526.8207748745704
 20
176.9612070781479
 30
0.0
 40
13.0
100
AcDbArc
 50
170.4775160220672
 51
144.0959608321524
  0
ARC
  5
E49
330
DE9
100
AcDbEntity
  8
0
100
AcDbCircle
 10
526.8207748745704
 20
176.9612070781479
 30
0.0
 40
14.5
100
AcDbArc
 50
186.8635251830323
 51
128.4585624383488
  0
LINE
  5
E4A
330
DE9
100
AcDbEntity
  8
0
100
AcDbLine
 10
498.4323698906888
 20
141.0499313700545
 30
0.0
 11
521.2717204383785
 21
196.7671536369432
 31
0.0
  0
LINE
  5
E4B
330
DE9
100
AcDbEntity
  8
0
100
AcDbLine
 10
374.2489453975673
 20
313.9093966595685
 30
0.0
 11
383.8500336271033
 21
306.5995340509223
 31
0.0
  0
LINE
  5
E4C
330
DE9
100
AcDbEntity
  8
0
100
AcDbLine
 10
389.393140143549
 20
333.8004339752986
 30
0.0
 11
374.2489453975673
 21
313.9093966595685
 31
0.0
  0
ARC
  5
E4D
330
DE9
100
AcDbEntity
  8
0
100
AcDbCircle
 10
359.4456002524436
 20
361.8426121162499
 30
0.0
 40
25.11337410049601
100
AcDbArc
 50
311.754284556527
 51
41.75428455652705
  0
LINE
  5
E4E
330
DE9
100
AcDbEntity
  8
0
100
AcDbLine
 10
278.1152056674242
 20
362.6393658011837
 30
0.0
 11
231.5451275417741
 21
301.4722204143652
 31
0.0
  0
LINE
  5
E4F
330
DE9
100
AcDbEntity
  8
0
100
AcDbLine
 10
247.457957394358
 20
289.3568646175788
 30
0.0
 11
294.0280355200081
 21
350.5240100043982
 31
0.0
  0
LINE
  5
E50
330
DE9
100
AcDbEntity
  8
0
100
AcDbLine
 10
254.4506226863192
 20
284.0329449398867
 30
0.0
 11
235.4078090536633
 21
259.02129374832
 31
0.0
  0
LINE
  5
E51
330
DE9
100
AcDbEntity
  8
0
100
AcDbLine
 10
235.4034101523263
 20
259.0246428857966
 30
0.0
 11
190.5533903541824
 21
293.1715515363123
 31
0.0
  0
LINE
  5
E52
330
DE9
100
AcDbEntity
  8
0
100
AcDbLine
 10
227.3808045474085
 20
304.6427598593825
 30
0.0
 11
248.447804236571
 21
288.6032370862838
 31
0.0
  0
LINE
  5
E53
330
DE9
100
AcDbEntity
  8
0
100
AcDbLine
 10
227.3446469670913
 20
304.6505924493606
 30
0.0
 11
218.2427895529441
 21
292.6958210994164
 31
0.0
  0
CIRCLE
  5
E54
330
DE9
100
AcDbEntity
  8
0
100
AcDbCircle
 10
228.9727519964814
 20
294.0021002952924
 30
0.0
 40
5.306069902824674
  0
LINE
  5
E55
330
DE9
100
AcDbEntity
  8
0
100
AcDbLine
 10
221.6406101413619
 20
269.6931325865342
 30
0.0
 11
231.4804617234464
 21
282.6172172462627
 31
0.0
  0
LINE
  5
E56
330
DE9
100
AcDbEntity
  8
0
100
AcDbLine
 10
231.4804617234464
 20
282.6172172462627
 30
0.0
 11
200.4849355363264
 21
306.2159002802898
 31
0.0
  0
LINE
  5
E57
330
DE9
100
AcDbEntity
  8
0
100
AcDbLine
 10
190.5533903541824
 20
293.1715515363123
 30
0.0
 11
200.4600691570737
 21
306.1834099446667
 31
0.0
  0
LINE
  5
E58
330
DE9
100
AcDbEntity
  8
0
100
AcDbLine
 10
247.2104956838053
 20
289.5452715004033
 30
0.0
 11
254.4462237849826
 21
284.0362940773632
 31
0.0
  0
LINE
  5
E59
330
DE9
100
AcDbEntity
  8
ASSE
100
AcDbLine
 10
285.8627520320075
 20
360.4164570790506
 30
0.0
 11
236.6085427397917
 21
397.9165293850226
 31
0.0
  0
LINE
  5
E5A
330
DE9
100
AcDbEntity
  8
0
100
AcDbLine
 10
294.0280355200081
 20
350.5240100043982
 30
0.0
 11
278.1152056674242
 21
362.6393658011837
 31
0.0
  0
LINE
  5
E5B
330
DE9
100
AcDbEntity
  8
0
100
AcDbLine
 10
341.2351942331458
 20
345.5867565872411
 30
0.0
 11
269.4667049269848
 21
425.9844525020887
 31
0.0
  0
LINE
  5
E5C
330
DE9
100
AcDbEntity
  8
ASSE
100
AcDbLine
 10
278.9849022809855
 20
402.4791343994791
 30
0.0
 11
240.9507718229776
 21
352.5234701399242
 31
0.0
  0
LINE
  5
E5D
330
DE9
100
AcDbEntity
  8
ASSE
100
AcDbLine
 10
267.2074964543764
 20
374.6216780185912
 30
0.0
 11
255.2728740649383
 21
383.7081948661805
 31
0.0
  0
CIRCLE
  5
E5E
330
DE9
100
AcDbEntity
  8
VITE
100
AcDbCircle
 10
261.2401852596573
 20
379.1649364423859
 30
0.0
 40
4.978571428571428
  0
LWPOLYLINE
  5
E5F
330
DE9
100
AcDbEntity
  8
VITE
100
AcDbPolyline
 90
        6
 70
     1
 43
0.0
 10
268.6851662391929
 20
378.213310703092
 10
265.786807814549
 20
385.1366662317089
 10
258.341826835013
 20
386.0882919710027
 10
253.7952042801213
 20
380.1165621816797
 10
256.6935627047657
 20
373.1932066530628
 10
264.1385436843012
 20
372.241580913769
  0
CIRCLE
  5
E67
330
DE9
100
AcDbEntity
  8
VITE
100
AcDbCircle
 10
261.2401852596573
 20
379.1649364423859
 30
0.0
 40
5.75
  0
CIRCLE
  5
E68
330
DE9
100
AcDbEntity
  8
VITE
100
AcDbCircle
 10
261.2401852596573
 20
379.1649364423859
 30
0.0
 40
6.5
  0
CIRCLE
  5
E69
330
DE9
100
AcDbEntity
  8
VITE
100
AcDbCircle
 10
261.2401852596573
 20
379.1649364423859
 30
0.0
 40
6.5
  0
CIRCLE
  5
E6A
330
DE9
100
AcDbEntity
  8
0
100
AcDbCircle
 10
261.2356446349409
 20
379.1664953265001
 30
0.0
 40
11.0
  0
CIRCLE
  5
E6B
330
DE9
100
AcDbEntity
  8
0
100
AcDbCircle
 10
261.2356446349409
 20
379.1664953265001
 30
0.0
 40
13.0
  0
CIRCLE
  5
E6C
330
DE9
100
AcDbEntity
  8
0
100
AcDbCircle
 10
261.2356446349409
 20
379.1664953265001
 30
0.0
 40
14.5
  0
LINE
  5
E6D
330
DE9
100
AcDbEntity
  8
ASSE
100
AcDbLine
 10
256.6969268358627
 20
373.1976252476668
 30
0.0
 11
265.783443683452
 21
385.1322476371049
 31
0.0
  0
LINE
  5
E6E
330
DE9
100
AcDbEntity
  8
0
100
AcDbLine
 10
196.1936076296698
 20
371.2685455959752
 30
0.0
 11
196.1936076296698
 21
405.304707989974
 31
0.0
  0
LINE
  5
E6F
330
DE9
100
AcDbEntity
  8
ASSE
100
AcDbLine
 10
378.7054100081911
 20
387.5315553882963
 30
0.0
 11
336.4600619871818
 21
332.0446966944826
 31
0.0
  0
LINE
  5
E70
330
DE9
100
AcDbEntity
  8
0
100
AcDbLine
 10
361.511494869124
 20
323.3523144429321
 30
0.0
 11
321.7294202376639
 21
353.6407039348962
 31
0.0
  0
LINE
  5
E71
330
DE9
100
AcDbEntity
  8
0
100
AcDbLine
 10
321.7294202376639
 20
353.6407039348962
 30
0.0
 11
324.8427674409464
 21
357.7299081769213
 31
0.0
  0
LINE
  5
E72
330
DE9
100
AcDbEntity
  8
0
100
AcDbLine
 10
324.8427674409464
 20
357.7299081769213
 30
0.0
 11
327.3978366380712
 21
361.0858460525721
 31
0.0
  0
LINE
  5
E73
330
DE9
100
AcDbEntity
  8
0
100
AcDbLine
 10
379.6845285643027
 20
347.2215592218083
 30
0.0
 11
361.511494869124
 21
323.3523144429321
 31
0.0
  0
LWPOLYLINE
  5
E74
330
DE9
100
AcDbEntity
  8
VITE
100
AcDbPolyline
 90
        6
 70
     1
 43
0.0
 10
379.1640313495906
 20
359.7508253110088
 10
371.5837093159067
 20
377.8580628473908
 10
352.112220600198
 20
380.3469301655439
 10
340.2210539181739
 20
364.7285599473155
 10
347.8013759518586
 20
346.6213224109331
 10
367.2728646675675
 20
344.13245509278
  0
CIRCLE
  5
E7C
330
DE9
100
AcDbEntity
  8
VITE
100
AcDbCircle
 10
359.6925426338827
 20
362.239692629162
 30
0.0
 40
17.0
  0
ARC
  5
E7D
330
DE9
100
AcDbEntity
  8
0
100
AcDbCircle
 10
359.9699616363047
 20
362.3106929976973
 30
0.0
 40
25.11337410049601
100
AcDbArc
 50
221.754284556527
 51
311.754284556527
  0
LINE
  5
E7E
330
DE9
100
AcDbEntity
  8
0
100
AcDbLine
 10
383.8500336271033
 20
306.5995340509223
 30
0.0
 11
394.8141718801568
 21
321.0003052232671
 31
0.0
  0
LINE
  5
E7F
330
DE9
100
AcDbEntity
  8
0
100
AcDbLine
 10
505.2593027055905
 20
400.611158604647
 30
0.0
 11
422.7030279918068
 21
292.178193463649
 31
0.0
  0
LINE
  5
E80
330
DE9
100
AcDbEntity
  8
0
100
AcDbLine
 10
391.1566081815487
 20
316.1963036085251
 30
0.0
 11
473.7128828953323
 21
424.6292687495231
 31
0.0
  0
LINE
  5
E81
330
DE9
100
AcDbEntity
  8
0
100
AcDbLine
 10
411.1842510805114
 20
207.4769598607702
 30
0.0
 11
458.8154144040268
 21
244.3187441691714
 31
0.0
  0
LINE
  5
E82
330
DE9
100
AcDbEntity
  8
0
100
AcDbLine
 10
424.9356148116199
 20
275.3009981724115
 30
0.0
 11
448.9709844860323
 21
306.8700873917603
 31
0.0
  0
LINE
  5
E83
330
DE9
100
AcDbEntity
  8
0
100
AcDbLine
 10
422.7030279918068
 20
292.178193463649
 30
0.0
 11
391.1566081815487
 21
316.1963036085251
 31
0.0
  0
LINE
  5
E84
330
DE9
100
AcDbEntity
  8
0
100
AcDbLine
 10
415.3879169000698
 20
282.5702116504828
 30
0.0
 11
424.9356148116199
 21
275.3009981724115
 31
0.0
  0
LINE
  5
E85
330
DE9
100
AcDbEntity
  8
0
100
AcDbLine
 10
422.7030279918068
 20
292.178193463649
 30
0.0
 11
415.3879169000698
 21
282.5702116504828
 31
0.0
  0
LINE
  5
E86
330
DE9
100
AcDbEntity
  8
0
100
AcDbLine
 10
448.9709844860323
 20
306.8700873917603
 30
0.0
 11
439.4232865744822
 21
314.1393008698317
 31
0.0
  0
LINE
  5
E87
330
DE9
100
AcDbEntity
  8
0
100
AcDbLine
 10
473.7128828953306
 20
424.6292687495199
 30
0.0
 11
482.0730121866705
 21
435.6098224526142
 31
0.0
  0
LINE
  5
E88
330
DE9
100
AcDbEntity
  8
0
100
AcDbLine
 10
389.3931482962904
 20
333.8004446834591
 30
0.0
 11
468.1429609753965
 21
437.2338387252559
 31
0.0
  0
LINE
  5
E89
330
DE9
100
AcDbEntity
  8
0
100
AcDbLine
 10
468.2918593114642
 20
437.4294082097119
 30
0.0
 11
477.8929475409992
 21
430.1195456010657
 31
0.0
  0
LINE
  5
E8A
330
DE9
100
AcDbEntity
  8
0
100
AcDbLine
 10
505.2593027055905
 20
400.611158604647
 30
0.0
 11
512.5744137973248
 21
410.2191404178104
 31
0.0
  0
LINE
  5
E8B
330
DE9
100
AcDbEntity
  8
0
100
AcDbLine
 10
547.662559741883
 20
414.7824132021439
 30
0.0
 11
544.7943468490854
 21
416.96614922013
 31
0.0
  0
LINE
  5
E8C
330
DE9
100
AcDbEntity
  8
0
100
AcDbLine
 10
565.8355934370616
 20
438.6516579810201
 30
0.0
 11
547.662559741883
 21
414.7824132021439
 31
0.0
  0
LINE
  5
E8D
330
DE9
100
AcDbEntity
  8
0
100
AcDbLine
 10
686.1160641167185
 20
346.4691384911227
 30
0.0
 11
704.2890978118972
 21
370.338383269999
 31
0.0
  0
LINE
  5
E8E
330
DE9
100
AcDbEntity
  8
ASSE
100
AcDbLine
 10
309.957518671739
 20
646.453123726709
 30
0.0
 11
86.44073929290483
 21
446.9267391946516
 31
0.0
  0
CIRCLE
  5
E8F
330
DE9
100
AcDbEntity
  8
0
100
AcDbCircle
 10
196.4766434983668
 20
545.0514115434978
 30
0.0
 40
18.0
  0
CIRCLE
  5
E90
330
DE9
100
AcDbEntity
  8
0
100
AcDbCircle
 10
196.4766434983668
 20
545.0514115434978
 30
0.0
 40
10.0
  0
CIRCLE
  5
E91
330
DE9
100
AcDbEntity
  8
0
100
AcDbCircle
 10
196.4766434983668
 20
545.0514115434978
 30
0.0
 40
32.5
  0
LINE
  5
E92
330
DE9
100
AcDbEntity
  8
ASSE
100
AcDbLine
 10
257.8855594209232
 20
476.2588899712434
 30
0.0
 11
85.1867673175335
 21
669.7224156302415
 31
0.0
  0
LINE
  5
E93
330
DE9
100
AcDbEntity
  8
ASSE
100
AcDbLine
 10
35.64239000340888
 20
508.8404135358171
 30
0.0
 11
31.19582977525499
 21
570.5855401296783
 31
0.0
  0
CIRCLE
  5
E94
330
DE9
100
AcDbEntity
  8
0
100
AcDbCircle
 10
33.4164022690303
 20
539.7118346008626
 30
0.0
 40
14.5
  0
ARC
  5
E95
330
DE9
100
AcDbEntity
  8
0
100
AcDbCircle
 10
33.41943696679312
 20
539.7084350210437
 30
0.0
 40
17.08566650733891
100
AcDbArc
 50
94.11903080150885
 51
274.1190308015126
  0
LINE
  5
E96
330
DE9
100
AcDbEntity
  8
ASSE
100
AcDbLine
 10
62.6438575657354
 20
541.8175933734066
 30
0.0
 11
0.0193863152313725
 21
537.3077073543324
 31
0.0
  0
LINE
  5
E97
330
DE9
100
AcDbEntity
  8
0
100
AcDbLine
 10
34.39629248659787
 20
556.9341644190524
 30
0.0
 11
56.98741300857694
 21
555.653042425866
 31
0.0
  0
CIRCLE
  5
E98
330
DE9
100
AcDbEntity
  8
0
100
AcDbCircle
 10
33.4164022690303
 20
539.7118346008626
 30
0.0
 40
13.0
  0
CIRCLE
  5
E99
330
DE9
100
AcDbEntity
  8
0
100
AcDbCircle
 10
33.4164022690303
 20
539.7118346008626
 30
0.0
 40
11.0
  0
LINE
  5
E9A
330
DE9
100
AcDbEntity
  8
0
100
AcDbLine
 10
34.74722717101816
 20
522.8296603951583
 30
0.0
 11
57.73026798535159
 21
526.2896610387794
 31
0.0
  0
LINE
  5
E9B
330
DE9
100
AcDbEntity
  8
ASSE
100
AcDbLine
 10
38.41509453090623
 20
534.1143839144677
 30
0.0
 11
28.42603272053395
 21
545.3044975934505
 31
0.0
  0
CIRCLE
  5
E9C
330
DE9
100
AcDbEntity
  8
VITE
100
AcDbCircle
 10
33.42056362571987
 20
539.7094407539587
 30
0.0
 40
5.75
  0
CIRCLE
  5
E9D
330
DE9
100
AcDbEntity
  8
VITE
100
AcDbCircle
 10
33.42056362571987
 20
539.7094407539587
 30
0.0
 40
4.978571428571428
  0
LINE
  5
E9E
330
DE9
100
AcDbEntity
  8
ASSE
100
AcDbLine
 10
27.82550678622795
 20
534.7149098487732
 30
0.0
 11
39.01562046521178
 21
544.703971659145
 31
0.0
  0
LINE
  5
E9F
330
DE9
100
AcDbEntity
  8
0
100
AcDbLine
 10
34.39629248659787
 20
556.9341644190524
 30
0.0
 11
31.83877740296032
 21
556.795901636761
 31
0.0
  0
LINE
  5
EA0
330
DE9
100
AcDbEntity
  8
0
100
AcDbLine
 10
32.44258144698836
 20
522.4827056230345
 30
0.0
 11
33.3733613327837
 21
522.6228306408654
 31
0.0
  0
CIRCLE
  5
EA1
330
DE9
100
AcDbEntity
  8
VITE
100
AcDbCircle
 10
33.42056362571987
 20
539.7094407539587
 30
0.0
 40
6.5
  0
CIRCLE
  5
EA2
330
DE9
100
AcDbEntity
  8
VITE
100
AcDbCircle
 10
33.42056362571987
 20
539.7094407539587
 30
0.0
 40
6.5
  0
LWPOLYLINE
  5
EA3
330
DE9
100
AcDbEntity
  8
VITE
100
AcDbPolyline
 90
        6
 70
     1
 43
0.0
 10
40.54875697297086
 20
537.3595060873064
 10
39.01976341790089
 20
544.7076699424399
 10
31.89157007064898
 20
547.0576046090925
 10
26.29237027846841
 20
542.0593754206122
 10
27.82136383353884
 20
534.7112115654788
 10
34.94955718079075
 20
532.3612768988262
  0
LINE
  5
EAB
330
DE9
100
AcDbEntity
  8
0
100
AcDbLine
 10
360.2430413535136
 20
594.9512936060334
 30
0.0
 11
497.3634804836416
 21
490.5535892088352
 31
0.0
  0
LINE
  5
EAC
330
DE9
100
AcDbEntity
  8
0
100
AcDbLine
 10
434.6179285214544
 20
534.6421185797559
 30
0.0
 11
334.1391105543045
 21
534.6421185797559
 31
0.0
  0
LINE
  5
EAD
330
DE9
100
AcDbEntity
  8
0
100
AcDbLine
 10
380.0701462020985
 20
620.9185536459956
 30
0.0
 11
364.1573163495146
 21
633.0339094427816
 31
0.0
  0
LINE
  5
EAE
330
DE9
100
AcDbEntity
  8
0
100
AcDbLine
 10
329.9997734604045
 20
637.0451875018595
 30
0.0
 11
315.4223239622671
 21
617.8985377922369
 31
0.0
1001
ACAD
1000
ASC_BOUNDS
1002
{
1070
    19
1005
EB0
1002
}
  0
LINE
  5
EAF
330
DE9
100
AcDbEntity
  8
0
100
AcDbLine
 10
364.1573163495146
 20
633.0339094427816
 30
0.0
 11
353.5563800273272
 21
619.1101833217697
 31
0.0
  0
INSERT
  5
EB0
330
DE9
100
AcDbEntity
  8
0
100
AcDbBlockReference
  2
*X2
 10
393.3270396464192
 20
4020.986730231558
 30
0.0
 50
232.7158882877487
1001
ACAD
1000
HATCH
1002
{
1070
    19
1000
AR-HBONE
1040
1.0
1040
10.34484377950411
1000
ASC_BOUNDS
1070
     2
1070
     1
1070
     4
1005
EB1
1005
DEA
1005
EAE
1005
DF2
1070
     1
1070
     7
1005
EB1
1005
EBB
1005
EB9
1005
EBA
1005
EB8
1005
EAE
1005
DEA
1000
ASC_SEEDPOINT
1011
-3725.577694674232
1021
-2183.116684155743
1031
0.0
1002
}
  0
LINE
  5
EB1
330
DE9
100
AcDbEntity
  8
0
100
AcDbLine
 10
375.030391348642
 20
657.9050480794237
 30
0.0
 11
327.068010065747
 21
594.9091917891803
 31
0.0
1001
ACAD
1000
ASC_BOUNDS
1002
{
1070
    19
1005
EB0
1002
}
  0
LINE
  5
EB2
330
DE9
100
AcDbEntity
  8
0
100
AcDbLine
 10
327.9073455787908
 20
593.0852256095874
 30
0.0
 11
343.0871408066374
 21
605.1603156651092
 31
0.0
  0
LINE
  5
EB3
330
DE9
100
AcDbEntity
  8
0
100
AcDbLine
 10
369.4692098799111
 20
606.9948275249842
 30
0.0
 11
380.0701462020985
 21
620.9185536459956
 31
0.0
  0
LINE
  5
EB4
330
DE9
100
AcDbEntity
  8
ASSE
100
AcDbLine
 10
378.4160750486923
 20
618.8205383849092
 30
0.0
 11
360.2430413535136
 21
594.9512936060334
 31
0.0
  0
LINE
  5
EB5
330
DE9
100
AcDbEntity
  8
0
100
AcDbLine
 10
358.8682735577237
 20
593.0711014039732
 30
0.0
 11
342.9554437051398
 21
605.1864572007587
 31
0.0
  0
LINE
  5
EB6
330
DE9
100
AcDbEntity
  8
0
100
AcDbLine
 10
342.9554437051398
 20
605.1864572007587
 30
0.0
 11
353.5563800273272
 21
619.1101833217697
 31
0.0
  0
LINE
  5
EB7
330
DE9
100
AcDbEntity
  8
0
100
AcDbLine
 10
369.4692098799111
 20
606.9948275249842
 30
0.0
 11
358.8682735577237
 21
593.0711014039732
 31
0.0
  0
LINE
  5
EB8
330
DE9
100
AcDbEntity
  8
0
100
AcDbLine
 10
329.9997734604045
 20
637.0451875018595
 30
0.0
 11
353.6247172641366
 21
668.0752057143989
 31
0.0
1001
ACAD
1000
ASC_BOUNDS
1002
{
1070
    19
1005
EB0
1002
}
  0
LINE
  5
EB9
330
DE9
100
AcDbEntity
  8
0
100
AcDbLine
 10
360.6317636764794
 20
669.0245742283488
 30
0.0
 11
374.9533105438055
 21
658.1207540112416
 31
0.0
1001
ACAD
1000
ASC_BOUNDS
1002
{
1070
    19
1005
EB0
1002
}
  0
ARC
  5
EBA
330
DE9
100
AcDbEntity
  8
0
100
AcDbCircle
 10
357.6029247272828
 20
665.0463667652027
 30
0.0
 40
5.0
100
AcDbArc
 50
52.71588828774874
 51
142.7158882877487
1001
ACAD
1000
ASC_BOUNDS
1002
{
1070
    19
1005
EB0
1002
}
  0
LINE
  5
EBB
330
DE9
100
AcDbEntity
  8
0
100
AcDbLine
 10
374.9533105438055
 20
658.1207540112416
 30
0.0
 11
364.2175588130091
 21
632.9139163095567
 31
0.0
1001
ACAD
1000
ASC_BOUNDS
1002
{
1070
    19
1005
EB0
1002
}
  0
LINE
  5
EBC
330
DE9
100
AcDbEntity
  8
0
100
AcDbLine
 10
479.1297750321515
 20
466.9603776619394
 30
0.0
 11
476.0548254052543
 21
469.3015142876791
 31
0.0
  0
LINE
  5
EBD
330
DE9
100
AcDbEntity
  8
0
100
AcDbLine
 10
476.0548254052543
 20
469.3015142876791
 30
0.0
 11
494.2278591004329
 21
493.1707590665553
 31
0.0
  0
ENDBLK
  5
EBF
330
DE9
100
AcDbEntity
  8
0
100
AcDbBlockEnd
  0
BLOCK
  5
EE4
330
EC8
100
AcDbEntity
  8
0
100
AcDbBlockBegin
  2
A$C4
 70
     0
 10
0.0
 20
0.0
 30
0.0
  3
A$C4
  1

  0
ARC
  5
EC9
330
EC8
100
AcDbEntity
  8
COSTRUZIONE
100
AcDbCircle
 10
842.7157828101197
 20
138.7076560940099
 30
0.0
 40
136.1412205861729
100
AcDbArc
 50
250.9763211781737
 51
29.46405252369914
  0
LINE
  5
ECA
330
EC8
100
AcDbEntity
  8
COSTRUZIONE
100
AcDbLine
 10
961.2491067569344
 20
205.6724457734563
 30
0.0
 11
766.9068505247718
 21
497.6736653826406
 31
0.0
  0
CIRCLE
  5
ECB
330
EC8
100
AcDbEntity
  8
COSTRUZIONE
100
AcDbCircle
 10
842.7157828101197
 20
138.7076560940099
 30
0.0
 40
119.0943258981544
  0
LINE
  5
ECC
330
EC8
100
AcDbEntity
  8
ASSE
100
AcDbLine
 10
953.51501079701
 20
11.66253808547253
 30
0.0
 11
594.6423819474053
 21
419.4211138380437
 31
0.0
  0
LINE
  5
ECD
330
EC8
100
AcDbEntity
  8
ASSE
100
AcDbLine
 10
724.9525426705372
 20
178.2940745879336
 30
0.0
 11
963.6618086177774
 21
98.05133594585596
 31
0.0
  0
LINE
  5
ECE
330
EC8
100
AcDbEntity
  8
ASSE
100
AcDbLine
 10
883.7551655110447
 20
260.7932315024314
 30
0.0
 11
802.03326140649
 21
17.68368575744853
 31
0.0
  0
LINE
  5
ECF
330
EC8
100
AcDbEntity
  8
COSTRUZIONE
100
AcDbLine
 10
554.8300819986803
 20
280.6622790211068
 30
0.0
 11
601.870080376365
 21
425.8064887476539
 31
0.0
  0
LINE
  5
ED0
330
EC8
100
AcDbEntity
  8
COSTRUZIONE
100
AcDbLine
 10
0.6512154969673248
 20
460.2669151984724
 30
0.0
 11
554.8300819986803
 21
280.6622790211068
 31
0.0
  0
LINE
  5
ED1
330
EC8
100
AcDbEntity
  8
COSTRUZIONE
100
AcDbLine
 10
441.4108886228109
 20
297.4625731789702
 30
0.0
 11
185.4836788416855
 21
383.4931682812235
 31
0.0
  0
LINE
  5
ED2
330
EC8
100
AcDbEntity
  8
ASSE
100
AcDbLine
 10
725.1849725773801
 20
435.5007850566498
 30
0.0
 11
643.5531937667085
 21
192.6593475929912
 31
0.0
  0
CIRCLE
  5
ED3
330
EC8
100
AcDbEntity
  8
COSTRUZIONE
100
AcDbCircle
 10
684.9535876430594
 20
315.8188732945246
 30
0.0
 40
117.5
  0
LINE
  5
ED4
330
EC8
100
AcDbEntity
  8
COSTRUZIONE
100
AcDbLine
 10
799.3476955424255
 20
10.29242563024627
 30
0.0
 11
544.1729831794939
 21
96.07006677439722
 31
0.0
  0
LINE
  5
ED5
330
EC8
100
AcDbEntity
  8
COSTRUZIONE
100
AcDbLine
 10
544.1729831794939
 20
96.07006677439722
 30
0.0
 11
441.4108886228109
 21
297.4625731789702
 31
0.0
  0
CIRCLE
  5
ED6
330
EC8
100
AcDbEntity
  8
COSTRUZIONE
100
AcDbCircle
 10
843.5211704039996
 20
138.0236920339807
 30
0.0
 40
30.0
  0
CIRCLE
  5
ED7
330
EC8
100
AcDbEntity
  8
COSTRUZIONE
100
AcDbCircle
 10
684.9535876430594
 20
315.8188732945246
 30
0.0
 40
30.0
  0
LINE
  5
ED8
330
EC8
100
AcDbEntity
  8
ASSE
100
AcDbLine
 10
552.3591320797216
 20
360.3771145946798
 30
0.0
 11
828.200949925009
 21
267.6521723596884
 31
0.0
  0
LINE
  5
ED9
330
EC8
100
AcDbEntity
  8
COSTRUZIONE
100
AcDbLine
 10
826.570291646264
 20
167.9902412621154
 30
0.0
 11
821.2224951737473
 21
169.7879169114135
 31
0.0
  0
LINE
  5
EDA
330
EC8
100
AcDbEntity
  8
COSTRUZIONE
100
AcDbLine
 10
831.0381816704875
 20
366.935968079943
 30
0.0
 11
832.2314058509288
 21
366.5348626780537
 31
0.0
  0
LINE
  5
EDB
330
EC8
100
AcDbEntity
  8
COSTRUZIONE
100
AcDbLine
 10
601.870080376365
 20
425.8064887476539
 30
0.0
 11
47.69121387465202
 21
605.4111249250195
 31
0.0
  0
LINE
  5
EDC
330
EC8
100
AcDbEntity
  8
COSTRUZIONE
100
AcDbLine
 10
47.69121387465202
 20
605.4111249250195
 30
0.0
 11
0.6512154969673248
 21
460.2669151984724
 31
0.0
  0
LINE
  5
EDD
330
EC8
100
AcDbEntity
  8
COSTRUZIONE
100
AcDbLine
 10
185.4836788416855
 20
383.4931682812235
 30
0.0
 11
175.4927785885543
 21
403.6022583053372
 31
0.0
  0
LINE
  5
EDE
330
EC8
100
AcDbEntity
  8
COSTRUZIONE
100
AcDbLine
 10
624.1097933087639
 20
543.4687919383327
 30
0.0
 11
501.9509370281005
 21
477.5594985805027
 31
0.0
  0
LINE
  5
EDF
330
EC8
100
AcDbEntity
  8
COSTRUZIONE
100
AcDbLine
 10
501.9509370281
 20
477.5594985805023
 30
0.0
 11
246.0237272469749
 21
563.590093682756
 31
0.0
  0
LINE
  5
EE0
330
EC8
100
AcDbEntity
  8
COSTRUZIONE
100
AcDbLine
 10
246.0237272469749
 20
563.590093682756
 30
0.0
 11
218.6682423947359
 21
549.9989306710517
 31
0.0
  0
CIRCLE
  5
EE1
330
EC8
100
AcDbEntity
  8
COSTRUZIONE
100
AcDbCircle
 10
708.1250242453705
 20
477.1416083303225
 30
0.0
 40
20.0
  0
CIRCLE
  5
EE2
330
EC8
100
AcDbEntity
  8
COSTRUZIONE
100
AcDbCircle
 10
708.1250242453705
 20
477.1416083303225
 30
0.0
 40
45.0
  0
ARC
  5
EE3
330
EC8
100
AcDbEntity
  8
COSTRUZIONE
100
AcDbCircle
 10
664.7155252884585
 20
424.5540086485257
 30
0.0
 40
125.6564807499745
100
AcDbArc
 50
35.58437420479229
 51
109.6562348015359
  0
ENDBLK
  5
EE5
330
EC8
100
AcDbEntity
  8
0
100
AcDbBlockEnd
  0
BLOCK
  5
10FD
330
10B5
100
AcDbEntity
  8
0
100
AcDbBlockBegin
  2
A$C2
 70
     0
 10
0.0
 20
0.0
 30
0.0
  3
A$C2
  1

  0
TEXT
  5
10B6
330
10B5
100
AcDbEntity
  8
0
100
AcDbText
 10
3.761094795620579
 20
1470.124329269329
 30
0.0
 40
100.0
  1
ETICAP SYSTEM 
  7
ROMANC
100
AcDbText
  0
TEXT
  5
10B7
330
10B5
100
AcDbEntity
  8
TESTO
100
AcDbText
 10
1282.14728295712
 20
1468.522021793597
 30
0.0
 40
60.0
  1
canelli
  7
ROMANC
100
AcDbText
  0
LINE
  5
10B8
330
10B5
100
AcDbEntity
  8
SQUADRATURA
100
AcDbLine
 10
865.8290609800884
 20
1422.555283288341
 30
0.0
 11
1526.509939655334
 21
1422.555283288341
 31
0.0
  0
TEXT
  5
10B9
330
10B5
100
AcDbEntity
  8
TESTO
100
AcDbText
 10
11.69990510970149
 20
192.8910985954021
 30
0.0
 40
50.0
  1
LARGHEZZA 120 mm
  7
ROMANC
100
AcDbText
  0
LINE
  5
10BA
330
10B5
100
AcDbEntity
  8
SQUADRATURA
100
AcDbLine
 10
4.265478842332072
 20
401.0195029176024
 30
0.0
 11
4.265478842332072
 21
138.7559948582716
 31
0.0
  0
LINE
  5
10BB
330
10B5
100
AcDbEntity
  8
SQUADRATURA
100
AcDbLine
 10
4.635089969048408
 20
2.852052286407797
 30
0.0
 11
865.0531579257828
 21
2.852052286407797
 31
0.0
  0
LINE
  5
10BC
330
10B5
100
AcDbEntity
  8
SQUADRATURA
100
AcDbLine
 10
4.635089969048408
 20
139.5484134888715
 30
0.0
 11
865.0531579257828
 21
139.5484134888715
 31
0.0
  0
LINE
  5
10BD
330
10B5
100
AcDbEntity
  8
0
100
AcDbLine
 10
4.635089969048408
 20
159.4395698334442
 30
0.0
 11
736.188699108851
 21
159.4395698334442
 31
0.0
  0
LINE
  5
10BE
330
10B5
100
AcDbEntity
  8
0
100
AcDbLine
 10
4.635089969048408
 20
179.2506372095536
 30
0.0
 11
736.188699108851
 21
179.2506372095536
 31
0.0
  0
TEXT
  5
10BF
330
10B5
100
AcDbEntity
  8
TESTO
100
AcDbText
 10
15.66932132280874
 20
42.16170705711511
 30
0.0
 40
50.0
  1
SCALA 1:15
  7
ROMANC
100
AcDbText
  0
LINE
  5
10C0
330
10B5
100
AcDbEntity
  8
0
100
AcDbLine
 10
4.82995711506976
 20
33.63931915251351
 30
0.0
 11
415.2137018479885
 21
33.63931915251351
 31
0.0
  0
LINE
  5
10C1
330
10B5
100
AcDbEntity
  8
0
100
AcDbLine
 10
4.82995711506976
 20
15.80936015779889
 30
0.0
 11
415.2137018479885
 21
15.80936015779889
 31
0.0
  0
LINE
  5
10C2
330
10B5
100
AcDbEntity
  8
SQUADRATURA
100
AcDbLine
 10
4.265478842332072
 20
138.7559948582716
 30
0.0
 11
4.265478842332072
 21
3.446401888265882
 31
0.0
  0
LINE
  5
10C3
330
10B5
100
AcDbEntity
  8
0
100
AcDbLine
 10
415.2137018479885
 20
15.80936015779889
 30
0.0
 11
466.70990222298
 21
15.80936015779889
 31
0.0
  0
LINE
  5
10C4
330
10B5
100
AcDbEntity
  8
0
100
AcDbLine
 10
415.2137018479885
 20
33.63931915251351
 30
0.0
 11
465.6157162465811
 21
33.63931915251351
 31
0.0
  0
LINE
  5
10C5
330
10B5
100
AcDbEntity
  8
0
100
AcDbLine
 10
736.188699108851
 20
159.4395698334442
 30
0.0
 11
859.5233974508742
 21
159.4395698334442
 31
0.0
  0
LINE
  5
10C6
330
10B5
100
AcDbEntity
  8
0
100
AcDbLine
 10
736.188699108851
 20
179.2506372095536
 30
0.0
 11
858.4292114744753
 21
179.2506372095536
 31
0.0
  0
TEXT
  5
10C7
330
10B5
100
AcDbEntity
  8
TESTO
100
AcDbText
 10
15.66932132280874
 20
347.5870474417575
 30
0.0
 40
50.0
  1
ALTEZZA 100 mm
  7
ROMANC
100
AcDbText
  0
TEXT
  5
10C8
330
10B5
100
AcDbEntity
  8
TESTO
100
AcDbText
 10
7.730499952661034
 20
498.3164322978041
 30
0.0
 40
50.0
  1
DIMENSIONI NASTRO
  7
ROMANC
100
AcDbText
  0
TEXT
  5
10C9
330
10B5
100
AcDbEntity
  8
TESTO
100
AcDbText
 10
11.69990510970149
 20
783.9089527309038
 30
0.0
 40
50.0
  1
LUNGHEZZA NASTRO
  7
ROMANC
100
AcDbText
  0
LINE
  5
10CA
330
10B5
100
AcDbEntity
  8
SQUADRATURA
100
AcDbLine
 10
4.635089969048408
 20
446.6199578185755
 30
0.0
 11
865.0531579257828
 21
446.6199578185755
 31
0.0
  0
LINE
  5
10CB
330
10B5
100
AcDbEntity
  8
SQUADRATURA
100
AcDbLine
 10
4.635089969048408
 20
300.0180578523482
 30
0.0
 11
865.0531579257828
 21
300.0180578523482
 31
0.0
  0
LINE
  5
10CC
330
10B5
100
AcDbEntity
  8
SQUADRATURA
100
AcDbLine
 10
4.635089969048408
 20
599.1651669335237
 30
0.0
 11
865.0531579257828
 21
599.1651669335237
 31
0.0
  0
LINE
  5
10CD
330
10B5
100
AcDbEntity
  8
SQUADRATURA
100
AcDbLine
 10
4.635089969048408
 20
733.8804278570992
 30
0.0
 11
865.0531579257828
 21
733.8804278570992
 31
0.0
  0
LINE
  5
10CE
330
10B5
100
AcDbEntity
  8
SQUADRATURA
100
AcDbLine
 10
4.635089969048408
 20
886.4256438871175
 30
0.0
 11
865.0531579257828
 21
886.4256438871175
 31
0.0
  0
LINE
  5
10CF
330
10B5
100
AcDbEntity
  8
SQUADRATURA
100
AcDbLine
 10
4.635089969048408
 20
1029.06531931401
 30
0.0
 11
865.0531579257828
 21
1029.06531931401
 31
0.0
  0
LINE
  5
10D0
330
10B5
100
AcDbEntity
  8
SQUADRATURA
100
AcDbLine
 10
4.635089969048408
 20
1155.856151904127
 30
0.0
 11
865.0531579257828
 21
1155.856151904127
 31
0.0
  0
LINE
  5
10D1
330
10B5
100
AcDbEntity
  8
SQUADRATURA
100
AcDbLine
 10
4.635089969048408
 20
1286.609195203439
 30
0.0
 11
865.0531579257828
 21
1286.609195203439
 31
0.0
  0
LINE
  5
10D2
330
10B5
100
AcDbEntity
  8
0
100
AcDbLine
 10
4.265478842332072
 20
320.3646547781886
 30
0.0
 11
664.9463575175801
 21
320.3646547781886
 31
0.0
  0
LINE
  5
10D3
330
10B5
100
AcDbEntity
  8
0
100
AcDbLine
 10
4.265478842332072
 20
472.5143230229755
 30
0.0
 11
754.2275641414931
 21
472.5143230229755
 31
0.0
  0
LINE
  5
10D4
330
10B5
100
AcDbEntity
  8
0
100
AcDbLine
 10
4.265478842332072
 20
759.1492911851505
 30
0.0
 11
798.8681560121518
 21
759.1492911851505
 31
0.0
  0
LINE
  5
10D5
330
10B5
100
AcDbEntity
  8
0
100
AcDbLine
 10
7.643899592364164
 20
1443.014265074691
 30
0.0
 11
1504.505612321799
 21
1443.014265074691
 31
0.0
  0
LINE
  5
10D6
330
10B5
100
AcDbEntity
  8
0
100
AcDbLine
 10
7.643899592364164
 20
1456.88200947194
 30
0.0
 11
1504.505612321799
 21
1456.88200947194
 31
0.0
  0
LINE
  5
10D7
330
10B5
100
AcDbEntity
  8
0
100
AcDbLine
 10
4.265478842332072
 20
338.1946098846315
 30
0.0
 11
664.9463575175801
 21
338.1946098846315
 31
0.0
  0
LINE
  5
10D8
330
10B5
100
AcDbEntity
  8
0
100
AcDbLine
 10
4.265478842332072
 20
488.3631727748211
 30
0.0
 11
754.2275641414931
 21
488.3631727748211
 31
0.0
  0
LINE
  5
10D9
330
10B5
100
AcDbEntity
  8
0
100
AcDbLine
 10
4.265478842332072
 20
776.9792532066635
 30
0.0
 11
798.8681560121518
 21
776.9792532066635
 31
0.0
  0
LINE
  5
10DA
330
10B5
100
AcDbEntity
  8
SQUADRATURA
100
AcDbLine
 10
865.8290609800884
 20
1422.555283288341
 30
0.0
 11
4.265478842332072
 21
1422.555283288341
 31
0.0
  0
LINE
  5
10DB
330
10B5
100
AcDbEntity
  8
SQUADRATURA
100
AcDbLine
 10
1526.509939655334
 20
1596.528621267371
 30
0.0
 11
4.265478842332072
 21
1596.528621267371
 31
0.0
  0
LINE
  5
10DC
330
10B5
100
AcDbEntity
  8
SQUADRATURA
100
AcDbLine
 10
4.265478842332072
 20
1596.528621267371
 30
0.0
 11
4.265478842332072
 21
401.0195029176024
 31
0.0
  0
TEXT
  5
10DD
330
10B5
100
AcDbEntity
  8
TESTO
100
AcDbText
 10
11.69990510970149
 20
633.1795678748562
 30
0.0
 40
50.0
  1
2500 mm
  7
ROMANC
100
AcDbText
  0
LINE
  5
10DE
330
10B5
100
AcDbEntity
  8
0
100
AcDbLine
 10
4.265478842332072
 20
614.9329313647326
 30
0.0
 11
352.4621572164802
 21
614.9329313647326
 31
0.0
  0
LINE
  5
10DF
330
10B5
100
AcDbEntity
  8
0
100
AcDbLine
 10
4.265478842332072
 20
626.8195704073846
 30
0.0
 11
352.4621572164802
 21
626.8195704073846
 31
0.0
  0
LINE
  5
10E0
330
10B5
100
AcDbEntity
  8
0
100
AcDbLine
 10
352.4621572164802
 20
614.9329313647326
 30
0.0
 11
415.2830618275935
 21
614.9329313647326
 31
0.0
  0
LINE
  5
10E1
330
10B5
100
AcDbEntity
  8
0
100
AcDbLine
 10
352.4621572164802
 20
626.8195704073846
 30
0.0
 11
415.2830618275935
 21
626.8195704073846
 31
0.0
  0
TEXT
  5
10E2
330
10B5
100
AcDbEntity
  8
TESTO
100
AcDbText
 10
15.66932132280874
 20
938.6049082594986
 30
0.0
 40
50.0
  1
12.000 B/h
  7
ROMANC
100
AcDbText
  0
TEXT
  5
10E3
330
10B5
100
AcDbEntity
  8
TESTO
100
AcDbText
 10
15.66932132280874
 20
1073.468043836551
 30
0.0
 40
50.0
  1
PRODUZIONE
  7
ROMANC
100
AcDbText
  0
LINE
  5
10E4
330
10B5
100
AcDbEntity
  8
0
100
AcDbLine
 10
4.265478842332072
 20
914.7536650868664
 30
0.0
 11
455.1355402574614
 21
914.7536650868664
 31
0.0
  0
LINE
  5
10E5
330
10B5
100
AcDbEntity
  8
0
100
AcDbLine
 10
4.265478842332072
 20
1047.883839015091
 30
0.0
 11
486.3839557110519
 21
1047.883839015091
 31
0.0
  0
LINE
  5
10E6
330
10B5
100
AcDbEntity
  8
0
100
AcDbLine
 10
4.265478842332072
 20
930.6025148387112
 30
0.0
 11
455.1355402574614
 21
930.6025148387112
 31
0.0
  0
LINE
  5
10E7
330
10B5
100
AcDbEntity
  8
0
100
AcDbLine
 10
4.265478842332072
 20
1063.732695682006
 30
0.0
 11
486.3839557110519
 21
1063.732695682006
 31
0.0
  0
LINE
  5
10E8
330
10B5
100
AcDbEntity
  8
0
100
AcDbLine
 10
455.1355402574614
 20
914.7536650868664
 30
0.0
 11
486.4052829663747
 21
914.7536650868664
 31
0.0
  0
LINE
  5
10E9
330
10B5
100
AcDbEntity
  8
0
100
AcDbLine
 10
455.1355402574614
 20
930.6025148387112
 30
0.0
 11
486.4052829663747
 21
930.6025148387112
 31
0.0
  0
LINE
  5
10EA
330
10B5
100
AcDbEntity
  8
0
100
AcDbLine
 10
486.3839557110519
 20
1047.883839015091
 30
0.0
 11
511.5716046478342
 21
1047.883839015091
 31
0.0
  0
LINE
  5
10EB
330
10B5
100
AcDbEntity
  8
0
100
AcDbLine
 10
486.3839557110519
 20
1063.732695682006
 30
0.0
 11
511.5716046478342
 21
1063.732695682006
 31
0.0
  0
TEXT
  5
10EC
330
10B5
100
AcDbEntity
  8
TESTO
100
AcDbText
 10
11.69990510970149
 20
1204.364615423295
 30
0.0
 40
50.0
  1
AS 12T 1S
  7
ROMANC
100
AcDbText
  0
TEXT
  5
10ED
330
10B5
100
AcDbEntity
  8
TESTO
100
AcDbText
 10
15.66932132280874
 20
1331.294623019731
 30
0.0
 40
50.0
  1
MODELLO
  7
ROMANC
100
AcDbText
  0
LINE
  5
10EE
330
10B5
100
AcDbEntity
  8
0
100
AcDbLine
 10
4.265478842332072
 20
1178.717643418368
 30
0.0
 11
464.9580459847153
 21
1178.717643418368
 31
0.0
  0
LINE
  5
10EF
330
10B5
100
AcDbEntity
  8
0
100
AcDbLine
 10
4.265478842332072
 20
1308.567613134974
 30
0.0
 11
392.6386979089808
 21
1308.567613134974
 31
0.0
  0
LINE
  5
10F0
330
10B5
100
AcDbEntity
  8
0
100
AcDbLine
 10
4.265478842332072
 20
1196.547605439881
 30
0.0
 11
461.7511336793164
 21
1196.547605439881
 31
0.0
  0
LINE
  5
10F1
330
10B5
100
AcDbEntity
  8
0
100
AcDbLine
 10
4.265478842332072
 20
1324.416469801889
 30
0.0
 11
392.6386979089808
 21
1324.416469801889
 31
0.0
  0
LINE
  5
10F2
330
10B5
100
AcDbEntity
  8
0
100
AcDbLine
 10
664.9463575175801
 20
320.3646547781886
 30
0.0
 11
758.8580996689676
 21
320.3646547781886
 31
0.0
  0
LINE
  5
10F3
330
10B5
100
AcDbEntity
  8
0
100
AcDbLine
 10
664.9463575175801
 20
338.1946098846315
 30
0.0
 11
758.8580996689676
 21
338.1946098846315
 31
0.0
  0
LINE
  5
10F4
330
10B5
100
AcDbEntity
  8
0
100
AcDbLine
 10
754.2275641414931
 20
472.5143230229755
 30
0.0
 11
805.9081851026899
 21
472.5143230229755
 31
0.0
  0
LINE
  5
10F5
330
10B5
100
AcDbEntity
  8
0
100
AcDbLine
 10
754.2275641414931
 20
488.3631727748211
 30
0.0
 11
805.9081851026899
 21
488.3631727748211
 31
0.0
  0
LINE
  5
10F6
330
10B5
100
AcDbEntity
  8
0
100
AcDbLine
 10
798.8681560121518
 20
759.1492911851505
 30
0.0
 11
820.132624908018
 21
759.1492911851505
 31
0.0
  0
LINE
  5
10F7
330
10B5
100
AcDbEntity
  8
0
100
AcDbLine
 10
798.8681560121518
 20
776.9792532066635
 30
0.0
 11
819.0384389316191
 21
776.9792532066635
 31
0.0
  0
LINE
  5
10F8
330
10B5
100
AcDbEntity
  8
0
100
AcDbLine
 10
1526.509939655334
 20
1422.555283288341
 30
0.0
 11
1630.666948629964
 21
1422.555283288341
 31
0.0
  0
LINE
  5
10F9
330
10B5
100
AcDbEntity
  8
0
100
AcDbLine
 10
1526.509939655334
 20
1596.528621267371
 30
0.0
 11
1630.666948629964
 21
1596.528621267371
 31
0.0
  0
LINE
  5
10FA
330
10B5
100
AcDbEntity
  8
0
100
AcDbLine
 10
1504.505612321799
 20
1443.014265074691
 30
0.0
 11
1611.425530077917
 21
1443.014265074691
 31
0.0
  0
LINE
  5
10FB
330
10B5
100
AcDbEntity
  8
0
100
AcDbLine
 10
1504.505612321799
 20
1456.88200947194
 30
0.0
 11
1611.425530077917
 21
1456.88200947194
 31
0.0
  0
LINE
  5
10FC
330
10B5
100
AcDbEntity
  8
SQUADRATURA
100
AcDbLine
 10
1630.734263426761
 20
1422.555283288341
 30
0.0
 11
1630.734263426761
 21
1596.528621267371
 31
0.0
  0
ENDBLK
  5
10FE
330
10B5
100
AcDbEntity
  8
0
100
AcDbBlockEnd
  0
BLOCK
  5
1193
330
114F
100
AcDbEntity
  8
0
100
AcDbBlockBegin
  2
A$C5
 70
     0
 10
0.0
 20
0.0
 30
0.0
  3
A$C5
  1

  0
LINE
  5
1150
330
114F
100
AcDbEntity
  8
0
100
AcDbLine
 10
1094.244798389387
 20
265.4956699719457
 30
0.0
 11
1094.244798389387
 21
4.407863914750805
 31
0.0
  0
TEXT
  5
1151
330
114F
100
AcDbEntity
  8
TESTO
100
AcDbText
 10
10.55459748010423
 20
57.36726564974538
 30
0.0
 40
50.0
  1
LARGHEZZA 120 mm
  7
ROMANC
100
AcDbText
  0
LINE
  5
1152
330
114F
100
AcDbEntity
  8
SQUADRATURA
100
AcDbLine
 10
3.120171212734817
 20
265.4956699719457
 30
0.0
 11
3.120171212734817
 21
3.232161912614856
 31
0.0
  0
LINE
  5
1153
330
114F
100
AcDbEntity
  8
SQUADRATURA
100
AcDbLine
 10
3.489782339451153
 20
4.024580543214824
 30
0.0
 11
863.9078502961854
 21
4.024580543214824
 31
0.0
  0
LINE
  5
1154
330
114F
100
AcDbEntity
  8
0
100
AcDbLine
 10
3.489782339451153
 20
23.91573688778749
 30
0.0
 11
735.0433914792537
 21
23.91573688778749
 31
0.0
  0
LINE
  5
1155
330
114F
100
AcDbEntity
  8
0
100
AcDbLine
 10
3.489782339451153
 20
43.72680426389684
 30
0.0
 11
735.0433914792537
 21
43.72680426389684
 31
0.0
  0
LINE
  5
1156
330
114F
100
AcDbEntity
  8
0
100
AcDbLine
 10
1094.244798389387
 20
4.407863914750805
 30
0.0
 11
841.343713783015
 21
4.407863914750805
 31
0.0
  0
LINE
  5
1157
330
114F
100
AcDbEntity
  8
0
100
AcDbLine
 10
735.0433914792537
 20
23.91573688778749
 30
0.0
 11
858.378089821277
 21
23.91573688778749
 31
0.0
  0
LINE
  5
1158
330
114F
100
AcDbEntity
  8
0
100
AcDbLine
 10
735.0433914792537
 20
43.72680426389684
 30
0.0
 11
857.2839038448782
 21
43.72680426389684
 31
0.0
  0
LINE
  5
1159
330
114F
100
AcDbEntity
  8
0
100
AcDbLine
 10
3.120171212734817
 20
1043.193810472711
 30
0.0
 11
1079.633627281053
 21
1043.193810472711
 31
0.0
  0
LINE
  5
115A
330
114F
100
AcDbEntity
  8
0
100
AcDbLine
 10
3.120171212734817
 20
1061.023772494224
 30
0.0
 11
1079.633627281053
 21
1061.023772494224
 31
0.0
  0
LINE
  5
115B
330
114F
100
AcDbEntity
  8
SQUADRATURA
100
AcDbLine
 10
3.489782339451153
 20
164.4942249066914
 30
0.0
 11
1089.269642902751
 21
164.4942249066914
 31
0.0
  0
LINE
  5
115C
330
114F
100
AcDbEntity
  8
SQUADRATURA
100
AcDbLine
 10
3.489782339451153
 20
311.0961248729188
 30
0.0
 11
1089.269642902751
 21
311.0961248729188
 31
0.0
  0
LINE
  5
115D
330
114F
100
AcDbEntity
  8
SQUADRATURA
100
AcDbLine
 10
3.489782339451153
 20
463.641333987867
 30
0.0
 11
1093.860866908766
 21
463.641333987867
 31
0.0
  0
LINE
  5
115E
330
114F
100
AcDbEntity
  8
SQUADRATURA
100
AcDbLine
 10
3.489782339451153
 20
598.3565949114424
 30
0.0
 11
1093.860866908766
 21
598.3565949114424
 31
0.0
  0
LINE
  5
115F
330
114F
100
AcDbEntity
  8
SQUADRATURA
100
AcDbLine
 10
3.489782339451153
 20
750.9018109414608
 30
0.0
 11
1089.269642902751
 21
750.9018109414608
 31
0.0
  0
LINE
  5
1160
330
114F
100
AcDbEntity
  8
SQUADRATURA
100
AcDbLine
 10
3.489782339451153
 20
893.5414863683533
 30
0.0
 11
1089.269642902751
 21
893.5414863683533
 31
0.0
  0
LINE
  5
1161
330
114F
100
AcDbEntity
  8
SQUADRATURA
100
AcDbLine
 10
3.489782339451153
 20
1020.33231895847
 30
0.0
 11
1093.860866908766
 21
1020.33231895847
 31
0.0
  0
LINE
  5
1162
330
114F
100
AcDbEntity
  8
SQUADRATURA
100
AcDbLine
 10
3.489782339451153
 20
1151.085362257782
 30
0.0
 11
1098.452078971562
 21
1151.085362257782
 31
0.0
  0
TEXT
  5
1163
330
114F
100
AcDbEntity
  8
TESTO
100
AcDbText
 10
10.55459748010423
 20
1068.840782477638
 30
0.0
 40
50.0
  1
MO / 10 T - 2SC - 3SA
  7
ROMANC
100
AcDbText
  0
TEXT
  5
1164
330
114F
100
AcDbEntity
  8
TESTO
100
AcDbText
 10
14.52401369321149
 20
212.0632144961007
 30
0.0
 40
50.0
  1
ALTEZZA 100 mm
  7
ROMANC
100
AcDbText
  0
TEXT
  5
1165
330
114F
100
AcDbEntity
  8
TESTO
100
AcDbText
 10
6.585192323063779
 20
362.7925993521474
 30
0.0
 40
50.0
  1
DIMENSIONI NASTRO
  7
ROMANC
100
AcDbText
  0
TEXT
  5
1166
330
114F
100
AcDbEntity
  8
TESTO
100
AcDbText
 10
10.55459748010423
 20
648.385119785247
 30
0.0
 40
50.0
  1
LUNGHEZZA NASTRO
  7
ROMANC
100
AcDbText
  0
LINE
  5
1167
330
114F
100
AcDbEntity
  8
0
100
AcDbLine
 10
3.120171212734817
 20
184.8408218325319
 30
0.0
 11
663.8010498879829
 21
184.8408218325319
 31
0.0
  0
LINE
  5
1168
330
114F
100
AcDbEntity
  8
0
100
AcDbLine
 10
3.120171212734817
 20
336.9904900773188
 30
0.0
 11
753.0822565118959
 21
336.9904900773188
 31
0.0
  0
LINE
  5
1169
330
114F
100
AcDbEntity
  8
0
100
AcDbLine
 10
3.120171212734817
 20
623.6254582394938
 30
0.0
 11
797.7228483825546
 21
623.6254582394938
 31
0.0
  0
LINE
  5
116A
330
114F
100
AcDbEntity
  8
0
100
AcDbLine
 10
3.120171212734817
 20
202.6707769389747
 30
0.0
 11
663.8010498879829
 21
202.6707769389747
 31
0.0
  0
LINE
  5
116B
330
114F
100
AcDbEntity
  8
0
100
AcDbLine
 10
3.120171212734817
 20
352.8393398291644
 30
0.0
 11
753.0822565118959
 21
352.8393398291644
 31
0.0
  0
LINE
  5
116C
330
114F
100
AcDbEntity
  8
0
100
AcDbLine
 10
3.120171212734817
 20
641.4554202610068
 30
0.0
 11
797.7228483825546
 21
641.4554202610068
 31
0.0
  0
LINE
  5
116D
330
114F
100
AcDbEntity
  8
SQUADRATURA
100
AcDbLine
 10
864.6837533504912
 20
1287.031450342684
 30
0.0
 11
3.120171212734817
 21
1287.031450342684
 31
0.0
  0
LINE
  5
116E
330
114F
100
AcDbEntity
  8
SQUADRATURA
100
AcDbLine
 10
3.120171212734817
 20
1461.004788321714
 30
0.0
 11
3.120171212734817
 21
265.4956699719457
 31
0.0
  0
TEXT
  5
116F
330
114F
100
AcDbEntity
  8
TESTO
100
AcDbText
 10
10.55459748010423
 20
497.6557349291995
 30
0.0
 40
50.0
  1
3000 mm
  7
ROMANC
100
AcDbText
  0
LINE
  5
1170
330
114F
100
AcDbEntity
  8
0
100
AcDbLine
 10
3.120171212734817
 20
479.4090984190758
 30
0.0
 11
351.316849586883
 21
479.4090984190758
 31
0.0
  0
LINE
  5
1171
330
114F
100
AcDbEntity
  8
0
100
AcDbLine
 10
3.120171212734817
 20
491.2957374617278
 30
0.0
 11
351.316849586883
 21
491.2957374617278
 31
0.0
  0
LINE
  5
1172
330
114F
100
AcDbEntity
  8
0
100
AcDbLine
 10
351.316849586883
 20
479.4090984190758
 30
0.0
 11
414.1377541979962
 21
479.4090984190758
 31
0.0
  0
LINE
  5
1173
330
114F
100
AcDbEntity
  8
0
100
AcDbLine
 10
351.316849586883
 20
491.2957374617278
 30
0.0
 11
414.1377541979962
 21
491.2957374617278
 31
0.0
  0
TEXT
  5
1174
330
114F
100
AcDbEntity
  8
TESTO
100
AcDbText
 10
14.52401369321149
 20
803.0810753138419
 30
0.0
 40
50.0
  1
3.000 B/h
  7
ROMANC
100
AcDbText
  0
TEXT
  5
1175
330
114F
100
AcDbEntity
  8
TESTO
100
AcDbText
 10
14.52401369321149
 20
937.9442108908941
 30
0.0
 40
50.0
  1
PRODUZIONE
  7
ROMANC
100
AcDbText
  0
LINE
  5
1176
330
114F
100
AcDbEntity
  8
0
100
AcDbLine
 10
3.120171212734817
 20
779.2298321412097
 30
0.0
 11
453.9902326278641
 21
779.2298321412097
 31
0.0
  0
LINE
  5
1177
330
114F
100
AcDbEntity
  8
0
100
AcDbLine
 10
3.120171212734817
 20
912.3600060694341
 30
0.0
 11
485.2386480814547
 21
912.3600060694341
 31
0.0
  0
LINE
  5
1178
330
114F
100
AcDbEntity
  8
0
100
AcDbLine
 10
3.120171212734817
 20
795.0786818930544
 30
0.0
 11
453.9902326278641
 21
795.0786818930544
 31
0.0
  0
LINE
  5
1179
330
114F
100
AcDbEntity
  8
0
100
AcDbLine
 10
3.120171212734817
 20
928.2088627363489
 30
0.0
 11
485.2386480814547
 21
928.2088627363489
 31
0.0
  0
LINE
  5
117A
330
114F
100
AcDbEntity
  8
0
100
AcDbLine
 10
453.9902326278641
 20
779.2298321412097
 30
0.0
 11
485.2599753367775
 21
779.2298321412097
 31
0.0
  0
LINE
  5
117B
330
114F
100
AcDbEntity
  8
0
100
AcDbLine
 10
453.9902326278641
 20
795.0786818930544
 30
0.0
 11
485.2599753367775
 21
795.0786818930544
 31
0.0
  0
LINE
  5
117C
330
114F
100
AcDbEntity
  8
0
100
AcDbLine
 10
485.2386480814547
 20
912.3600060694341
 30
0.0
 11
510.426297018237
 21
912.3600060694341
 31
0.0
  0
LINE
  5
117D
330
114F
100
AcDbEntity
  8
0
100
AcDbLine
 10
485.2386480814547
 20
928.2088627363489
 30
0.0
 11
510.426297018237
 21
928.2088627363489
 31
0.0
  0
TEXT
  5
117E
330
114F
100
AcDbEntity
  8
TESTO
100
AcDbText
 10
14.52401369321149
 20
1195.770790074074
 30
0.0
 40
50.0
  1
MODELLO
  7
ROMANC
100
AcDbText
  0
LINE
  5
117F
330
114F
100
AcDbEntity
  8
0
100
AcDbLine
 10
3.120171212734817
 20
1173.043780189317
 30
0.0
 11
391.4933902793836
 21
1173.043780189317
 31
0.0
  0
LINE
  5
1180
330
114F
100
AcDbEntity
  8
0
100
AcDbLine
 10
3.120171212734817
 20
1188.892636856232
 30
0.0
 11
391.4933902793836
 21
1188.892636856232
 31
0.0
  0
LINE
  5
1181
330
114F
100
AcDbEntity
  8
SQUADRATURA
100
AcDbLine
 10
1094.244798389387
 20
265.4956699719457
 30
0.0
 11
1094.244798389387
 21
1287.031450342684
 31
0.0
  0
LINE
  5
1182
330
114F
100
AcDbEntity
  8
0
100
AcDbLine
 10
663.8010498879829
 20
184.8408218325319
 30
0.0
 11
757.7127920393703
 21
184.8408218325319
 31
0.0
  0
LINE
  5
1183
330
114F
100
AcDbEntity
  8
0
100
AcDbLine
 10
663.8010498879829
 20
202.6707769389747
 30
0.0
 11
757.7127920393703
 21
202.6707769389747
 31
0.0
  0
LINE
  5
1184
330
114F
100
AcDbEntity
  8
0
100
AcDbLine
 10
753.0822565118959
 20
336.9904900773188
 30
0.0
 11
804.7628774730927
 21
336.9904900773188
 31
0.0
  0
LINE
  5
1185
330
114F
100
AcDbEntity
  8
0
100
AcDbLine
 10
753.0822565118959
 20
352.8393398291644
 30
0.0
 11
804.7628774730927
 21
352.8393398291644
 31
0.0
  0
LINE
  5
1186
330
114F
100
AcDbEntity
  8
0
100
AcDbLine
 10
797.7228483825546
 20
623.6254582394938
 30
0.0
 11
818.9873172784208
 21
623.6254582394938
 31
0.0
  0
LINE
  5
1187
330
114F
100
AcDbEntity
  8
0
100
AcDbLine
 10
797.7228483825546
 20
641.4554202610068
 30
0.0
 11
817.8931313020219
 21
641.4554202610068
 31
0.0
  0
LINE
  5
1188
330
114F
100
AcDbEntity
  8
SQUADRATURA
100
AcDbLine
 10
864.6837533504912
 20
1287.031450342684
 30
0.0
 11
1525.364632025737
 21
1287.031450342684
 31
0.0
  0
TEXT
  5
1189
330
114F
100
AcDbEntity
  8
0
100
AcDbText
 10
2.615787166023324
 20
1334.600496323673
 30
0.0
 40
100.0
  1
ETICAP SYSTEM 
  7
ROMANC
100
AcDbText
  0
LINE
  5
118A
330
114F
100
AcDbEntity
  8
0
100
AcDbLine
 10
6.498591962766909
 20
1307.490432129035
 30
0.0
 11
1503.360304692202
 21
1307.490432129035
 31
0.0
  0
LINE
  5
118B
330
114F
100
AcDbEntity
  8
0
100
AcDbLine
 10
6.498591962766909
 20
1321.358176526283
 30
0.0
 11
1503.360304692202
 21
1321.358176526283
 31
0.0
  0
LINE
  5
118C
330
114F
100
AcDbEntity
  8
SQUADRATURA
100
AcDbLine
 10
1525.364632025737
 20
1461.004788321714
 30
0.0
 11
3.120171212734817
 21
1461.004788321714
 31
0.0
  0
TEXT
  5
118D
330
114F
100
AcDbEntity
  8
TESTO
100
AcDbText
 10
1281.001975327523
 20
1332.99818884794
 30
0.0
 40
60.0
  1
canelli
  7
ROMANC
100
AcDbText
  0
LINE
  5
118E
330
114F
100
AcDbEntity
  8
0
100
AcDbLine
 10
1525.364632025737
 20
1287.031450342684
 30
0.0
 11
1629.521641000367
 21
1287.031450342684
 31
0.0
  0
LINE
  5
118F
330
114F
100
AcDbEntity
  8
0
100
AcDbLine
 10
1525.364632025737
 20
1461.004788321714
 30
0.0
 11
1629.521641000367
 21
1461.004788321714
 31
0.0
  0
LINE
  5
1190
330
114F
100
AcDbEntity
  8
0
100
AcDbLine
 10
1503.360304692202
 20
1307.490432129035
 30
0.0
 11
1610.28022244832
 21
1307.490432129035
 31
0.0
  0
LINE
  5
1191
330
114F
100
AcDbEntity
  8
0
100
AcDbLine
 10
1503.360304692202
 20
1321.358176526283
 30
0.0
 11
1610.28022244832
 21
1321.358176526283
 31
0.0
  0
LINE
  5
1192
330
114F
100
AcDbEntity
  8
SQUADRATURA
100
AcDbLine
 10
1629.588955797164
 20
1287.031450342684
 30
0.0
 11
1629.588955797164
 21
1461.004788321714
 31
0.0
  0
ENDBLK
  5
1194
330
114F
100
AcDbEntity
  8
0
100
AcDbBlockEnd
  0
BLOCK
  5
1609
330
1605
100
AcDbEntity
  8
0
100
AcDbBlockBegin
  2
A$C6
 70
     0
 10
0.0
 20
0.0
 30
0.0
  3
A$C6
  1

  0
LINE
  5
1606
330
1605
100
AcDbEntity
  8
0
100
AcDbLine
 10
1.900637218473519
 20
0.8165157741112096
 30
0.0
 11
1700.64860396784
 21
0.8165157741112096
 31
0.0
  0
LINE
  5
1607
330
1605
100
AcDbEntity
  8
0
100
AcDbLine
 10
1.900637218473519
 20
14.30680798376833
 30
0.0
 11
1700.64860396784
 21
14.30680798376833
 31
0.0
  0
TEXT
  5
1608
330
1605
100
AcDbEntity
  8
TESTO
100
AcDbText
 10
8.733529025279011
 20
25.88597534847286
 30
0.0
 40
25.0
  1
DATI NON INPEGNATIVI con la possibilità di modifica da parte del costruttore
  7
ROMANC
100
AcDbText
  0
ENDBLK
  5
160A
330
1605
100
AcDbEntity
  8
0
100
AcDbBlockEnd
  0
BLOCK
  5
1754
330
16C1
100
AcDbEntity
  8
0
100
AcDbBlockBegin
  2
A$C19
 70
     0
 10
0.0
 20
0.0
 30
0.0
  3
A$C19
  1

  0
LINE
  5
16C2
330
16C1
100
AcDbEntity
  8
0
  6
Continuous
100
AcDbLine
 10
16.86465385112342
 20
1539.387947989269
 30
0.0
 11
210.3212526459261
 21
1539.387947989269
 31
0.0
  0
LINE
  5
16C3
330
16C1
100
AcDbEntity
  8
0
  6
Continuous
100
AcDbLine
 10
13.79961108458474
 20
1542.387947989269
 30
0.0
 11
210.7217973001857
 21
1542.387947989269
 31
0.0
  0
LINE
  5
16C4
330
16C1
100
AcDbEntity
  8
0
  6
Continuous
100
AcDbLine
 10
16.86465385112342
 20
1539.397005377572
 30
0.0
 11
16.86465385112342
 21
1345.295598523998
 31
0.0
  0
LINE
  5
16C5
330
16C1
100
AcDbEntity
  8
0
  6
Continuous
100
AcDbLine
 10
13.86465385112342
 20
1344.582053764481
 30
0.0
 11
13.86465385112342
 21
1542.387947989269
 31
0.0
  0
LINE
  5
16C6
330
16C1
100
AcDbEntity
  8
0
  6
Continuous
100
AcDbLine
 10
40.86465385112387
 20
1342.326027239535
 30
0.0
 11
16.86465385112342
 21
1342.326027239535
 31
0.0
  0
LINE
  5
16C7
330
16C1
100
AcDbEntity
  8
0
  6
Continuous
100
AcDbLine
 10
40.86465385112387
 20
1345.326027239535
 30
0.0
 11
16.86465385112342
 21
1345.326027239535
 31
0.0
  0
ARC
  5
16C8
330
16C1
100
AcDbEntity
  8
0
  6
Continuous
100
AcDbCircle
 10
16.86465385112342
 20
1345.326027239535
 30
0.0
 40
3.000000000000002
100
AcDbArc
 50
180.0
 51
270.0000000000001
  0
ARC
  5
16C9
330
16C1
100
AcDbEntity
  8
0
  6
Continuous
100
AcDbCircle
 10
40.86465385112387
 20
1345.326027239535
 30
0.0
 40
3.000000000000002
100
AcDbArc
 50
270.0000000000001
 51
0.0
  0
LINE
  5
16CA
330
16C1
100
AcDbEntity
  8
0
  6
Continuous
100
AcDbLine
 10
43.86465385112342
 20
1345.326027239535
 30
0.0
 11
43.86465385112342
 21
1372.326027239535
 31
0.0
  0
LINE
  5
16CB
330
16C1
100
AcDbEntity
  8
0
  6
Continuous
100
AcDbLine
 10
40.86465385112387
 20
1372.326027239535
 30
0.0
 11
40.86465385112387
 21
1345.326027239535
 31
0.0
  0
LINE
  5
16CC
330
16C1
100
AcDbEntity
  8
0
  6
Continuous
100
AcDbLine
 10
43.86465385112342
 20
1372.326027239535
 30
0.0
 11
40.86465385112387
 21
1372.326027239535
 31
0.0
  0
ARC
  5
16CD
330
16C1
100
AcDbEntity
  8
0
  6
Continuous
100
AcDbCircle
 10
210.3825961616365
 20
1515.387947989269
 30
0.0
 40
3.000000000000002
100
AcDbArc
 50
270.0000000000001
 51
0.0
  0
LINE
  5
16CE
330
16C1
100
AcDbEntity
  8
0
  6
Continuous
100
AcDbLine
 10
183.3825961616362
 20
1512.387947989268
 30
0.0
 11
183.3825961616362
 21
1515.387947989269
 31
0.0
  0
LINE
  5
16CF
330
16C1
100
AcDbEntity
  8
0
  6
Continuous
100
AcDbLine
 10
183.3825961616362
 20
1512.387947989268
 30
0.0
 11
210.3825961616365
 21
1512.387947989268
 31
0.0
  0
LINE
  5
16D0
330
16C1
100
AcDbEntity
  8
0
  6
Continuous
100
AcDbLine
 10
183.3825961616362
 20
1515.387947989269
 30
0.0
 11
210.3825961616365
 21
1515.387947989269
 31
0.0
  0
LINE
  5
16D1
330
16C1
100
AcDbEntity
  8
0
  6
Continuous
100
AcDbLine
 10
213.3825961616365
 20
1515.387947989269
 30
0.0
 11
213.3825961616365
 21
1539.387947989269
 31
0.0
  0
LINE
  5
16D2
330
16C1
100
AcDbEntity
  8
0
  6
Continuous
100
AcDbLine
 10
210.3825961616365
 20
1515.387947989269
 30
0.0
 11
210.3825961616365
 21
1539.387947989269
 31
0.0
  0
ARC
  5
16D3
330
16C1
100
AcDbEntity
  8
0
  6
Continuous
100
AcDbCircle
 10
210.3825961616362
 20
1539.387947989269
 30
0.0
 40
3.000000000000002
100
AcDbArc
 50
0.0
 51
90.00000000000003
  0
LINE
  5
16D4
330
16C1
100
AcDbEntity
  8
0
100
AcDbLine
 10
43.98463635524194
 20
1345.42301120368
 30
0.0
 11
43.98463635524194
 21
206.0075629793002
 31
0.0
  0
LINE
  5
16D5
330
16C1
100
AcDbEntity
  8
0
100
AcDbLine
 10
40.76775053175288
 20
208.9543767434191
 30
0.0
 11
40.76775053175288
 21
1342.208690483241
 31
0.0
  0
LINE
  5
16D6
330
16C1
100
AcDbEntity
  8
0
100
AcDbLine
 10
16.90921477223992
 20
1342.208690483241
 30
0.0
 11
16.90921477223992
 21
208.7135348940076
 31
0.0
  0
LINE
  5
16D7
330
16C1
100
AcDbEntity
  8
0
100
AcDbLine
 10
13.9604076385217
 20
206.8382859357837
 30
0.0
 11
13.9604076385217
 21
1345.423800789801
 31
0.0
  0
LINE
  5
16D8
330
16C1
100
AcDbEntity
  8
0
  6
Continuous
100
AcDbLine
 10
16.86465385112342
 20
11.38794798926835
 30
0.0
 11
16.86465385112342
 21
205.7232999205401
 31
0.0
  0
LINE
  5
16D9
330
16C1
100
AcDbEntity
  8
0
  6
Continuous
100
AcDbLine
 10
13.86465385112342
 20
206.9744624186853
 30
0.0
 11
13.86465385112342
 21
8.387947989268354
 31
0.0
  0
LINE
  5
16DA
330
16C1
100
AcDbEntity
  8
0
  6
Continuous
100
AcDbLine
 10
5.864653851123421
 20
0.3879479892683548
 30
0.0
 11
5.864653851123421
 21
236.4886371499636
 31
0.0
  0
LINE
  5
16DB
330
16C1
100
AcDbEntity
  8
0
  6
Continuous
100
AcDbLine
 10
43.86465385112342
 20
205.8326432144195
 30
0.0
 11
43.86465385112342
 21
178.8326432144194
 31
0.0
  0
LINE
  5
16DC
330
16C1
100
AcDbEntity
  8
0
  6
Continuous
100
AcDbLine
 10
40.86465385112387
 20
205.8326432144195
 30
0.0
 11
40.86465385112387
 21
178.8326432144194
 31
0.0
  0
LINE
  5
16DD
330
16C1
100
AcDbEntity
  8
0
  6
Continuous
100
AcDbLine
 10
40.86465385112387
 20
178.8326432144194
 30
0.0
 11
43.86465385112342
 21
178.8326432144194
 31
0.0
  0
LINE
  5
16DE
330
16C1
100
AcDbEntity
  8
0
  6
Continuous
100
AcDbLine
 10
40.86465385112387
 20
208.8326432144195
 30
0.0
 11
16.86465385112342
 21
208.8326432144195
 31
0.0
  0
LINE
  5
16DF
330
16C1
100
AcDbEntity
  8
0
  6
Continuous
100
AcDbLine
 10
16.86465385112342
 20
205.8326432144195
 30
0.0
 11
40.86465385112387
 21
205.8326432144195
 31
0.0
  0
ARC
  5
16E0
330
16C1
100
AcDbEntity
  8
0
  6
Continuous
100
AcDbCircle
 10
16.86465385112342
 20
205.8326432144195
 30
0.0
 40
3.000000000000002
100
AcDbArc
 50
90.00000000000003
 51
180.0
  0
ARC
  5
16E1
330
16C1
100
AcDbEntity
  8
0
  6
Continuous
100
AcDbCircle
 10
40.86465385112387
 20
205.8326432144195
 30
0.0
 40
3.000000000000002
100
AcDbArc
 50
0.0
 51
90.00000000000003
  0
LINE
  5
16E2
330
16C1
100
AcDbEntity
  8
0
  6
Continuous
100
AcDbLine
 10
5.864653851123421
 20
356.1880187697373
 30
0.0
 11
5.864653851123421
 21
625.3879479892685
 31
0.0
  0
LINE
  5
16E3
330
16C1
100
AcDbEntity
  8
VITE
  6
Continuous
100
AcDbLine
 10
120.8039696220296
 20
916.2828458864396
 30
0.0
 11
125.1763730736547
 21
910.1824015264314
 31
0.0
  0
LINE
  5
16E4
330
16C1
100
AcDbEntity
  8
VITE
  6
Continuous
100
AcDbLine
 10
123.9009076863585
 20
923.1196805311451
 30
0.0
 11
120.8039696220296
 21
916.2828458864396
 31
0.0
  0
CIRCLE
  5
16E5
330
16C1
100
AcDbEntity
  8
VITE
  6
Continuous
100
AcDbCircle
 10
128.2733111379843
 20
917.0192361711364
 30
0.0
 40
4.978571428571497
  0
LINE
  5
16E6
330
16C1
100
AcDbEntity
  8
VITE
  6
Continuous
100
AcDbLine
 10
131.3702492023121
 20
923.8560708158427
 30
0.0
 11
123.9009076863585
 21
923.1196805311451
 31
0.0
  0
LINE
  5
16E7
330
16C1
100
AcDbEntity
  8
VITE
  6
Continuous
100
AcDbLine
 10
125.1763730736547
 20
910.1824015264314
 30
0.0
 11
132.6457145896072
 21
910.9187918111279
 31
0.0
  0
LINE
  5
16E8
330
16C1
100
AcDbEntity
  8
0
100
AcDbLine
 10
1652.080810684827
 20
11.48403494644503
 30
0.0
 11
214.7598805259399
 21
11.48403494644503
 31
0.0
  0
LINE
  5
16E9
330
16C1
100
AcDbEntity
  8
0
100
AcDbLine
 10
1652.746351793049
 20
35.46733971259823
 30
0.0
 11
215.0163366595857
 21
35.46733971259823
 31
0.0
  0
LINE
  5
16EA
330
16C1
100
AcDbEntity
  8
0
  6
Continuous
100
AcDbLine
 10
1080.864653851123
 20
0.3879479892683548
 30
0.0
 11
5.864653851123421
 21
0.3879479892683548
 31
0.0
  0
LINE
  5
16EB
330
16C1
100
AcDbEntity
  8
0
100
AcDbLine
 10
212.0402705887022
 20
38.26751949822778
 30
0.0
 11
1652.413586827492
 21
38.26751949822778
 31
0.0
  0
LINE
  5
16EC
330
16C1
100
AcDbEntity
  8
0
100
AcDbLine
 10
212.703301856272
 20
8.402081407921514
 30
0.0
 11
1652.080810684826
 21
8.402081407921514
 31
0.0
  0
LINE
  5
16ED
330
16C1
100
AcDbEntity
  8
0
  6
Continuous
100
AcDbLine
 10
212.2017393608889
 20
8.387947989268354
 30
0.0
 11
13.75116265909446
 21
8.387947989268354
 31
0.0
  0
LINE
  5
16EE
330
16C1
100
AcDbEntity
  8
0
  6
Continuous
100
AcDbLine
 10
16.60261505403605
 20
11.38794798926835
 30
0.0
 11
211.7648656942324
 21
11.38794798926835
 31
0.0
  0
LINE
  5
16EF
330
16C1
100
AcDbEntity
  8
0
  6
Continuous
100
AcDbLine
 10
187.8870693173317
 20
38.38794798926836
 30
0.0
 11
211.8870693173317
 21
38.38794798926836
 31
0.0
  0
LINE
  5
16F0
330
16C1
100
AcDbEntity
  8
0
  6
Continuous
100
AcDbLine
 10
187.8870693173317
 20
35.38794798926836
 30
0.0
 11
211.8870693173317
 21
35.38794798926836
 31
0.0
  0
LINE
  5
16F1
330
16C1
100
AcDbEntity
  8
0
  6
Continuous
100
AcDbLine
 10
187.8870693173317
 20
38.38794798926836
 30
0.0
 11
187.8870693173317
 21
35.38794798926836
 31
0.0
  0
ARC
  5
16F2
330
16C1
100
AcDbEntity
  8
0
  6
Continuous
100
AcDbCircle
 10
211.8870693173317
 20
11.38794798926835
 30
0.0
 40
3.000000000000002
100
AcDbArc
 50
270.0000000000001
 51
0.0
  0
LINE
  5
16F3
330
16C1
100
AcDbEntity
  8
0
  6
Continuous
100
AcDbLine
 10
214.8870693173319
 20
35.38794798926836
 30
0.0
 11
214.8870693173319
 21
11.38794798926835
 31
0.0
  0
LINE
  5
16F4
330
16C1
100
AcDbEntity
  8
0
  6
Continuous
100
AcDbLine
 10
211.8870693173317
 20
35.38794798926836
 30
0.0
 11
211.8870693173317
 21
11.38794798926835
 31
0.0
  0
ARC
  5
16F5
330
16C1
100
AcDbEntity
  8
0
  6
Continuous
100
AcDbCircle
 10
211.8870693173317
 20
35.38794798926836
 30
0.0
 40
3.000000000000002
100
AcDbArc
 50
0.0
 51
90.00000000000003
  0
LINE
  5
16F6
330
16C1
100
AcDbEntity
  8
0
  6
Continuous
100
AcDbLine
 10
2015.864653851124
 20
0.3879479892683548
 30
0.0
 11
2155.864653851124
 21
0.3879479892683548
 31
0.0
  0
LINE
  5
16F7
330
16C1
100
AcDbEntity
  8
0
  6
Continuous
100
AcDbLine
 10
2147.864653851124
 20
8.387947989268354
 30
0.0
 11
1652.419421279731
 21
8.387947989268354
 31
0.0
  0
LINE
  5
16F8
330
16C1
100
AcDbEntity
  8
0
  6
Continuous
100
AcDbLine
 10
2015.864653851124
 20
0.3879479892683548
 30
0.0
 11
1080.864653851123
 21
0.3879479892683548
 31
0.0
  0
LINE
  5
16F9
330
16C1
100
AcDbEntity
  8
0
100
AcDbLine
 10
1652.291186278728
 20
209.1385168586924
 30
0.0
 11
1652.291186278728
 21
8.553015566355725
 31
0.0
  0
LINE
  5
16FA
330
16C1
100
AcDbEntity
  8
0
100
AcDbLine
 10
2147.89856395098
 20
209.1385168586924
 30
0.0
 11
1652.291186278728
 21
209.1385168586924
 31
0.0
  0
LINE
  5
16FB
330
16C1
100
AcDbEntity
  8
0
  6
Continuous
100
AcDbLine
 10
5.864653851123421
 20
1550.387947989269
 30
0.0
 11
1080.864653851123
 21
1550.387947989269
 31
0.0
  0
LINE
  5
16FC
330
16C1
100
AcDbEntity
  8
0
100
AcDbLine
 10
210.3825961616362
 20
1542.387947989269
 30
0.0
 11
1950.860749820758
 21
1542.387947989269
 31
0.0
  0
LINE
  5
16FD
330
16C1
100
AcDbEntity
  8
0
100
AcDbLine
 10
1947.675097790175
 20
1539.507276202813
 30
0.0
 11
213.4082249858197
 21
1539.507276202813
 31
0.0
  0
LINE
  5
16FE
330
16C1
100
AcDbEntity
  8
0
100
AcDbLine
 10
213.4082249858197
 20
1515.486366644166
 30
0.0
 11
1947.617170113126
 21
1515.486366644166
 31
0.0
  0
LINE
  5
16FF
330
16C1
100
AcDbEntity
  8
0
100
AcDbLine
 10
1949.065186678086
 20
1512.302875946745
 30
0.0
 11
210.2225437283573
 21
1512.302875946745
 31
0.0
  0
LINE
  5
1700
330
16C1
100
AcDbEntity
  8
0
  6
Continuous
100
AcDbLine
 10
1080.864653851123
 20
1550.387947989269
 30
0.0
 11
2155.864653851124
 21
1550.387947989269
 31
0.0
  0
LINE
  5
1701
330
16C1
100
AcDbEntity
  8
0
  6
Continuous
100
AcDbLine
 10
2144.966497444193
 20
1539.387947989269
 30
0.0
 11
1950.621907753729
 21
1539.387947989269
 31
0.0
  0
LINE
  5
1702
330
16C1
100
AcDbEntity
  8
0
  6
Continuous
100
AcDbLine
 10
2147.864653851124
 20
1542.387947989269
 30
0.0
 11
1949.960649583572
 21
1542.387947989269
 31
0.0
  0
LINE
  5
1703
330
16C1
100
AcDbEntity
  8
0
  6
Continuous
100
AcDbLine
 10
833.9232566494597
 20
1464.808023831776
 30
0.0
 11
842.4080419910383
 21
1464.10096154295
 31
0.0
  0
LINE
  5
1704
330
16C1
100
AcDbEntity
  8
0
  6
Continuous
100
AcDbLine
 10
830.2692539405606
 20
1469.126387434271
 30
0.0
 11
842.2278034076516
 21
1468.129846093878
 31
0.0
  0
LINE
  5
1705
330
16C1
100
AcDbEntity
  8
0
  6
Continuous
100
AcDbLine
 10
826.6152512316597
 20
1473.444751036766
 30
0.0
 11
838.5738006987521
 21
1472.448209696373
 31
0.0
  0
LINE
  5
1706
330
16C1
100
AcDbEntity
  8
0
  6
Continuous
100
AcDbLine
 10
832.7217779772826
 20
1479.735549865595
 30
0.0
 11
844.3487433999976
 21
1465.994601024305
 31
0.0
  0
LINE
  5
1707
330
16C1
100
AcDbEntity
  8
0
  6
Continuous
100
AcDbLine
 10
795.9030793033734
 20
1455.131009065981
 30
0.0
 11
825.67513512617
 21
1480.322767481865
 31
0.0
  0
LINE
  5
1708
330
16C1
100
AcDbEntity
  8
0
  6
Continuous
100
AcDbLine
 10
809.6739772685092
 20
1462.814923357222
 30
0.0
 11
808.6774359281148
 21
1450.856373890131
 31
0.0
  0
LINE
  5
1709
330
16C1
100
AcDbEntity
  8
0
  6
Continuous
100
AcDbLine
 10
813.3279799774078
 20
1458.496559754728
 30
0.0
 11
812.3314386370138
 21
1446.538010287637
 31
0.0
  0
LINE
  5
170A
330
16C1
100
AcDbEntity
  8
0
  6
Continuous
100
AcDbLine
 10
821.9647071823969
 20
1465.804565172527
 30
0.0
 11
820.9681658420048
 21
1453.846015705436
 31
0.0
  0
LINE
  5
170B
330
16C1
100
AcDbEntity
  8
0
  6
Continuous
100
AcDbLine
 10
825.6187098912974
 20
1461.486201570032
 30
0.0
 11
824.6221685509048
 21
1449.52765210294
 31
0.0
  0
LINE
  5
170C
330
16C1
100
AcDbEntity
  8
0
  6
Continuous
100
AcDbLine
 10
829.272712600196
 20
1457.167837967537
 30
0.0
 11
828.8978307581379
 21
1452.669235781298
 31
0.0
  0
LINE
  5
170D
330
16C1
100
AcDbEntity
  8
0
  6
Continuous
100
AcDbLine
 10
805.7113989107637
 20
1463.430362643908
 30
0.0
 11
805.0234332192157
 21
1455.174737492626
 31
0.0
  0
LINE
  5
170E
330
16C1
100
AcDbEntity
  8
0
  6
Continuous
100
AcDbLine
 10
788.4143397027992
 20
1448.531092968066
 30
0.0
 11
800.3728891698896
 21
1447.534551627673
 31
0.0
  0
LINE
  5
170F
330
16C1
100
AcDbEntity
  8
0
  6
Continuous
100
AcDbLine
 10
784.1195808982875
 20
1445.16034909941
 30
0.0
 11
784.0959761003355
 21
1444.877090259522
 31
0.0
  0
LINE
  5
1710
330
16C1
100
AcDbEntity
  8
0
  6
Continuous
100
AcDbLine
 10
783.8127172600607
 20
1444.900695057149
 30
0.0
 11
788.0821592560014
 21
1444.544909812368
 31
0.0
  0
LINE
  5
1711
330
16C1
100
AcDbEntity
  8
0
  6
Continuous
100
AcDbLine
 10
820.6359853952067
 20
1449.859832549736
 30
0.0
 11
820.2611035531472
 21
1445.3612303635
 31
0.0
  0
LINE
  5
1712
330
16C1
100
AcDbEntity
  8
0
  6
Continuous
100
AcDbLine
 10
804.6912527724167
 20
1451.188554336929
 30
0.0
 11
804.100260257217
 21
1444.096612496452
 31
0.0
  0
LINE
  5
1713
330
16C1
100
AcDbEntity
  8
0
  6
Continuous
100
AcDbLine
 10
801.0372500635176
 20
1455.506917939423
 30
0.0
 11
800.4462575483175
 21
1448.414976098947
 31
0.0
  0
LINE
  5
1714
330
16C1
100
AcDbEntity
  8
0
  6
Continuous
100
AcDbLine
 10
797.0746717057732
 20
1456.12235722611
 30
0.0
 11
796.7922548394185
 21
1452.733339701442
 31
0.0
  0
LINE
  5
1715
330
16C1
100
AcDbEntity
  8
0
  6
Continuous
100
AcDbLine
 10
796.7922548394169
 20
1452.733339701443
 30
0.0
 11
796.3867060142238
 21
1447.866732074828
 31
0.0
  0
LINE
  5
1716
330
16C1
100
AcDbEntity
  8
0
  6
Continuous
100
AcDbLine
 10
792.7563081032785
 20
1452.468354517209
 30
0.0
 11
792.7327033053252
 21
1452.185095677323
 31
0.0
  0
LINE
  5
1717
330
16C1
100
AcDbEntity
  8
0
  6
Continuous
100
AcDbLine
 10
792.4494444650502
 20
1452.208700474947
 30
0.0
 11
796.7188864609929
 21
1451.852915230165
 31
0.0
  0
LINE
  5
1718
330
16C1
100
AcDbEntity
  8
0
  6
Continuous
100
AcDbLine
 10
800.7050696166903
 20
1451.520734783367
 30
0.0
 11
812.6636190837807
 21
1450.524193442976
 31
0.0
  0
LINE
  5
1719
330
16C1
100
AcDbEntity
  8
0
  6
Continuous
100
AcDbLine
 10
816.6498022394799
 20
1450.192012996177
 30
0.0
 11
825.1345875810574
 21
1449.484950707351
 31
0.0
  0
LINE
  5
171A
330
16C1
100
AcDbEntity
  8
0
  6
Continuous
100
AcDbLine
 10
804.3590723255888
 20
1447.202371180874
 30
0.0
 11
816.3176217926801
 21
1446.205829840482
 31
0.0
  0
LINE
  5
171B
330
16C1
100
AcDbEntity
  8
0
  6
Continuous
100
AcDbLine
 10
820.3038049483785
 20
1445.873649393683
 30
0.0
 11
820.8162239785623
 21
1445.830947998453
 31
0.0
  0
LINE
  5
171C
330
16C1
100
AcDbEntity
  8
0
  6
Continuous
100
AcDbLine
 10
797.0510669077889
 20
1455.839098385865
 30
0.0
 11
809.0096163748826
 21
1454.842557045471
 31
0.0
  0
LINE
  5
171D
330
16C1
100
AcDbEntity
  8
0
  6
Continuous
100
AcDbLine
 10
812.9957995305794
 20
1454.510376598673
 30
0.0
 11
824.9543489976717
 21
1453.513835258279
 31
0.0
  0
LINE
  5
171E
330
16C1
100
AcDbEntity
  8
0
  6
Continuous
100
AcDbLine
 10
828.940532153369
 20
1453.181654811481
 30
0.0
 11
829.4529511835525
 21
1453.138953416251
 31
0.0
  0
LINE
  5
171F
330
16C1
100
AcDbEntity
  8
0
  6
Continuous
100
AcDbLine
 10
810.0297625132585
 20
1467.084365352808
 30
0.0
 11
810.0061577153065
 21
1466.801106512921
 31
0.0
  0
LINE
  5
1720
330
16C1
100
AcDbEntity
  8
0
  6
Continuous
100
AcDbLine
 10
814.348126115753
 20
1470.738368061709
 30
0.0
 11
813.6601604242056
 21
1462.482742910426
 31
0.0
  0
LINE
  5
1721
330
16C1
100
AcDbEntity
  8
0
  6
Continuous
100
AcDbLine
 10
818.666489718249
 20
1474.392370770606
 30
0.0
 11
818.6428849202966
 21
1474.109111930719
 31
0.0
  0
LINE
  5
1722
330
16C1
100
AcDbEntity
  8
0
  6
Continuous
100
AcDbLine
 10
818.3107044734974
 20
1470.122928775022
 30
0.0
 11
817.314163133105
 21
1458.16437930793
 31
0.0
  0
LINE
  5
1723
330
16C1
100
AcDbEntity
  8
0
  6
Continuous
100
AcDbLine
 10
822.9848533207437
 20
1478.046373479507
 30
0.0
 11
822.2968876291956
 21
1469.790748328225
 31
0.0
  0
LINE
  5
1724
330
16C1
100
AcDbEntity
  8
0
  6
Continuous
100
AcDbLine
 10
826.947431678489
 20
1477.430934192822
 30
0.0
 11
825.9508903380956
 21
1465.472384725728
 31
0.0
  0
LINE
  5
1725
330
16C1
100
AcDbEntity
  8
0
  6
Continuous
100
AcDbLine
 10
831.2521030754314
 20
1480.920629701637
 30
0.0
 11
830.9336148341863
 21
1477.098753746023
 31
0.0
  0
LINE
  5
1726
330
16C1
100
AcDbEntity
  8
0
  6
Continuous
100
AcDbLine
 10
830.6014343873876
 20
1473.112570590326
 30
0.0
 11
829.6048930469941
 21
1461.154021123233
 31
0.0
  0
LINE
  5
1727
330
16C1
100
AcDbEntity
  8
0
  6
Continuous
100
AcDbLine
 10
834.9479668667791
 20
1477.10460133092
 30
0.0
 11
834.5876175430849
 21
1472.780390143528
 31
0.0
  0
LINE
  5
1728
330
16C1
100
AcDbEntity
  8
0
  6
Continuous
100
AcDbLine
 10
834.2554370962867
 20
1468.794206987832
 30
0.0
 11
833.2588957558936
 21
1456.835657520739
 31
0.0
  0
LINE
  5
1729
330
16C1
100
AcDbEntity
  8
0
  6
Continuous
100
AcDbLine
 10
801.3930353082677
 20
1459.776359935009
 30
0.0
 11
801.3694305103157
 21
1459.493101095122
 31
0.0
  0
LINE
  5
172A
330
16C1
100
AcDbEntity
  8
0
  6
Continuous
100
AcDbLine
 10
801.0861716700397
 20
1459.516705892747
 30
0.0
 11
805.3556136659826
 21
1459.160920647966
 31
0.0
  0
LINE
  5
172B
330
16C1
100
AcDbEntity
  8
0
  6
Continuous
100
AcDbLine
 10
809.3417968216799
 20
1458.828740201168
 30
0.0
 11
821.3003462887709
 21
1457.832198860775
 31
0.0
  0
LINE
  5
172C
330
16C1
100
AcDbEntity
  8
0
  6
Continuous
100
AcDbLine
 10
825.2865294444696
 20
1457.500018413975
 30
0.0
 11
833.7713147860482
 21
1456.792956125149
 31
0.0
  0
LINE
  5
172D
330
16C1
100
AcDbEntity
  8
0
  6
Continuous
100
AcDbLine
 10
805.6877941127813
 20
1463.147103803662
 30
0.0
 11
817.6463435798723
 21
1462.15056246327
 31
0.0
  0
LINE
  5
172E
330
16C1
100
AcDbEntity
  8
0
  6
Continuous
100
AcDbLine
 10
821.6325267355705
 20
1461.818382016472
 30
0.0
 11
833.5910762026637
 21
1460.821840676076
 31
0.0
  0
LINE
  5
172F
330
16C1
100
AcDbEntity
  8
0
  6
Continuous
100
AcDbLine
 10
809.7228988750302
 20
1466.824711310545
 30
0.0
 11
813.9923408709719
 21
1466.468926065766
 31
0.0
  0
LINE
  5
1730
330
16C1
100
AcDbEntity
  8
0
  6
Continuous
100
AcDbLine
 10
817.9785240266692
 20
1466.136745618968
 30
0.0
 11
829.9370734937619
 21
1465.140204278574
 31
0.0
  0
LINE
  5
1731
330
16C1
100
AcDbEntity
  8
0
  6
Continuous
100
AcDbLine
 10
814.3245213177706
 20
1470.455109221463
 30
0.0
 11
826.2830707848634
 21
1469.458567881068
 31
0.0
  0
LINE
  5
1732
330
16C1
100
AcDbEntity
  8
0
  6
Continuous
100
AcDbLine
 10
818.3596260800209
 20
1474.132716728344
 30
0.0
 11
822.629068075963
 21
1473.776931483565
 31
0.0
  0
LINE
  5
1733
330
16C1
100
AcDbEntity
  8
0
  6
Continuous
100
AcDbLine
 10
822.9612485227608
 20
1477.763114639262
 30
0.0
 11
834.919797989853
 21
1476.766573298868
 31
0.0
  0
LINE
  5
1734
330
16C1
100
AcDbEntity
  8
0
  6
Continuous
100
AcDbLine
 10
827.7728643520376
 20
1481.376013179417
 30
0.0
 11
830.8273122459794
 21
1481.121476991164
 31
0.0
  0
ARC
  5
1735
330
16C1
100
AcDbEntity
  8
0
  6
Continuous
100
AcDbCircle
 10
828.9048477435908
 20
1476.505837248173
 30
0.0
 40
5.000000000000337
100
AcDbArc
 50
40.23637947608739
 51
130.2363794760738
  0
LINE
  5
1736
330
16C1
100
AcDbEntity
  8
0
  6
Continuous
100
AcDbLine
 10
838.6019695756795
 20
1472.786237728425
 30
0.0
 11
838.2416202519857
 21
1468.462026541032
 31
0.0
  0
LINE
  5
1737
330
16C1
100
AcDbEntity
  8
0
  6
Continuous
100
AcDbLine
 10
837.9094398051865
 20
1464.475843385336
 30
0.0
 11
837.5345579631284
 21
1459.977241199097
 31
0.0
  0
LINE
  5
1738
330
16C1
100
AcDbEntity
  8
0
  6
Continuous
100
AcDbLine
 10
842.2559722845775
 20
1468.467874125929
 30
0.0
 11
841.8956229608838
 21
1464.143662938538
 31
0.0
  0
LINE
  5
1739
330
16C1
100
AcDbEntity
  8
0
  6
Continuous
100
AcDbLine
 10
837.5772593583597
 20
1460.48966022928
 30
0.0
 11
838.0896783885436
 21
1460.44695883405
 31
0.0
  0
LINE
  5
173A
330
16C1
100
AcDbEntity
  8
0
100
AcDbLine
 10
1406.536493329437
 20
1465.553319625592
 30
0.0
 11
1393.419578451091
 21
1453.226659734356
 31
0.0
  0
ARC
  5
173B
330
16C1
100
AcDbEntity
  8
0
100
AcDbCircle
 10
1409.960565521447
 20
1461.909732159385
 30
0.0
 40
4.999999999999894
100
AcDbArc
 50
43.22101552873867
 51
133.2210155287346
  0
ARC
  5
173C
330
16C1
100
AcDbEntity
  8
0
  6
Continuous
100
AcDbCircle
 10
1950.642762640412
 20
1515.387947989269
 30
0.0
 40
3.000000000000002
100
AcDbArc
 50
180.0
 51
270.0000000000001
  0
LINE
  5
173D
330
16C1
100
AcDbEntity
  8
0
  6
Continuous
100
AcDbLine
 10
1977.642762640412
 20
1515.387947989269
 30
0.0
 11
1977.642762640412
 21
1512.387947989268
 31
0.0
  0
LINE
  5
173E
330
16C1
100
AcDbEntity
  8
0
  6
Continuous
100
AcDbLine
 10
1950.642762640412
 20
1512.387947989268
 30
0.0
 11
1977.642762640412
 21
1512.387947989268
 31
0.0
  0
LINE
  5
173F
330
16C1
100
AcDbEntity
  8
0
  6
Continuous
100
AcDbLine
 10
1977.642762640412
 20
1515.387947989269
 30
0.0
 11
1950.642762640412
 21
1515.387947989269
 31
0.0
  0
LINE
  5
1740
330
16C1
100
AcDbEntity
  8
0
  6
Continuous
100
AcDbLine
 10
1947.642762640412
 20
1539.387947989269
 30
0.0
 11
1947.642762640412
 21
1515.387947989269
 31
0.0
  0
ARC
  5
1741
330
16C1
100
AcDbEntity
  8
0
  6
Continuous
100
AcDbCircle
 10
1950.642762640412
 20
1539.387947989269
 30
0.0
 40
3.000000000000002
100
AcDbArc
 50
90.00000000000003
 51
180.0
  0
LINE
  5
1742
330
16C1
100
AcDbEntity
  8
0
  6
Continuous
100
AcDbLine
 10
1950.642762640412
 20
1515.387947989269
 30
0.0
 11
1950.642762640412
 21
1539.387947989269
 31
0.0
  0
LINE
  5
1743
330
16C1
100
AcDbEntity
  8
0
100
AcDbLine
 10
2117.797783658797
 20
209.1243340498688
 30
0.0
 11
2117.797783658797
 21
1345.636518907561
 31
0.0
  0
LINE
  5
1744
330
16C1
100
AcDbEntity
  8
0
  6
Continuous
100
AcDbLine
 10
2155.864653851124
 20
1432.387947989268
 30
0.0
 11
2155.864653851124
 21
625.3879479892685
 31
0.0
  0
LINE
  5
1745
330
16C1
100
AcDbEntity
  8
0
100
AcDbLine
 10
2147.864653851124
 20
1345.109722833663
 30
0.0
 11
2147.864653851124
 21
203.9590330178046
 31
0.0
  0
LINE
  5
1746
330
16C1
100
AcDbEntity
  8
0
100
AcDbLine
 10
2144.548153619742
 20
209.0165008973283
 30
0.0
 11
2144.548153619742
 21
1341.987805272385
 31
0.0
  0
LINE
  5
1747
330
16C1
100
AcDbEntity
  8
0
100
AcDbLine
 10
2120.689715283162
 20
1341.987805272385
 30
0.0
 11
2120.689715283162
 21
209.0792477926671
 31
0.0
  0
LINE
  5
1748
330
16C1
100
AcDbEntity
  8
0
  6
Continuous
100
AcDbLine
 10
2155.864653851124
 20
625.3879479892685
 30
0.0
 11
2155.864653851124
 21
0.3879479892683548
 31
0.0
  0
LINE
  5
1749
330
16C1
100
AcDbEntity
  8
0
  6
Continuous
100
AcDbLine
 10
2147.864653851124
 20
205.4450160177578
 30
0.0
 11
2147.864653851124
 21
8.332591801788339
 31
0.0
  0
LINE
  5
174A
330
16C1
100
AcDbEntity
  8
0
  6
Continuous
100
AcDbLine
 10
2144.864653851124
 20
1342.109722833664
 30
0.0
 11
2120.864653851123
 21
1342.109722833664
 31
0.0
  0
LINE
  5
174B
330
16C1
100
AcDbEntity
  8
0
  6
Continuous
100
AcDbLine
 10
2120.864653851123
 20
1345.109722833663
 30
0.0
 11
2144.864653851124
 21
1345.109722833663
 31
0.0
  0
ARC
  5
174C
330
16C1
100
AcDbEntity
  8
0
  6
Continuous
100
AcDbCircle
 10
2120.864653851123
 20
1345.109722833663
 30
0.0
 40
3.000000000000002
100
AcDbArc
 50
180.0
 51
270.0000000000001
  0
LINE
  5
174D
330
16C1
100
AcDbEntity
  8
0
  6
Continuous
100
AcDbLine
 10
2117.864653851124
 20
1345.109722833663
 30
0.0
 11
2117.864653851124
 21
1369.109722833664
 31
0.0
  0
LINE
  5
174E
330
16C1
100
AcDbEntity
  8
0
  6
Continuous
100
AcDbLine
 10
2120.864653851123
 20
1369.109722833664
 30
0.0
 11
2120.864653851123
 21
1345.109722833663
 31
0.0
  0
LINE
  5
174F
330
16C1
100
AcDbEntity
  8
0
  6
Continuous
100
AcDbLine
 10
2120.864653851123
 20
1369.109722833664
 30
0.0
 11
2117.864653851124
 21
1369.109722833664
 31
0.0
  0
LINE
  5
1750
330
16C1
100
AcDbEntity
  8
0
  6
Continuous
100
AcDbLine
 10
2155.864653851124
 20
1282.387947989268
 30
0.0
 11
2155.864653851124
 21
1550.387947989269
 31
0.0
  0
LINE
  5
1751
330
16C1
100
AcDbEntity
  8
0
  6
Continuous
100
AcDbLine
 10
2144.864653851124
 20
1345.139260471792
 30
0.0
 11
2144.864653851124
 21
1539.392183477589
 31
0.0
  0
LINE
  5
1752
330
16C1
100
AcDbEntity
  8
0
  6
Continuous
100
AcDbLine
 10
2147.864653851124
 20
1344.839898838709
 30
0.0
 11
2147.864653851124
 21
1542.406775073347
 31
0.0
  0
ARC
  5
1753
330
16C1
100
AcDbEntity
  8
0
  6
Continuous
100
AcDbCircle
 10
2144.864653851124
 20
1345.109722833663
 30
0.0
 40
3.000000000000002
100
AcDbArc
 50
270.0000000000001
 51
0.0
  0
ENDBLK
  5
1755
330
16C1
100
AcDbEntity
  8
0
100
AcDbBlockEnd
  0
BLOCK
  5
19D6
330
197E
100
AcDbEntity
  8
0
100
AcDbBlockBegin
  2
*X9
 70
     1
 10
0.0
 20
0.0
 30
0.0
  3
*X9
  1

  0
LINE
  5
197F
330
197E
100
AcDbEntity
  8
0
 62
     0
100
AcDbLine
 10
2712.260624128367
 20
1999.496988692327
 30
0.0
 11
2712.461612631596
 21
1999.697977195557
 31
0.0
  0
LINE
  5
1980
330
197E
100
AcDbEntity
  8
0
 62
     0
100
AcDbLine
 10
2715.290039756343
 20
2002.526404320303
 30
0.0
 11
2723.775321130581
 21
2011.011685694542
 31
0.0
  0
LINE
  5
1981
330
197E
100
AcDbEntity
  8
0
 62
     0
100
AcDbLine
 10
2726.603748255328
 20
2013.840112819288
 30
0.0
 11
2731.635890503999
 21
2018.872255067959
 31
0.0
  0
LINE
  5
1982
330
197E
100
AcDbEntity
  8
0
 62
     0
100
AcDbLine
 10
2731.635890504
 20
2018.87225506796
 30
0.0
 11
2735.089029629566
 21
2022.325394193526
 31
0.0
  0
LINE
  5
1983
330
197E
100
AcDbEntity
  8
0
 62
     0
100
AcDbLine
 10
2706.603769878874
 20
1999.496988692327
 30
0.0
 11
2712.461612631596
 21
2005.354831445049
 31
0.0
  0
LINE
  5
1984
330
197E
100
AcDbEntity
  8
0
 62
     0
100
AcDbLine
 10
2715.290039756343
 20
2008.183258569796
 30
0.0
 11
2723.775321130581
 21
2016.668539944034
 31
0.0
  0
LINE
  5
1985
330
197E
100
AcDbEntity
  8
0
 62
     0
100
AcDbLine
 10
2726.603748255328
 20
2019.49696706878
 30
0.0
 11
2729.795766271061
 21
2022.688985084514
 31
0.0
  0
LINE
  5
1986
330
197E
100
AcDbEntity
  8
0
 62
     0
100
AcDbLine
 10
2700.946915629382
 20
1999.496988692327
 30
0.0
 11
2701.147904132612
 21
1999.697977195556
 31
0.0
  0
LINE
  5
1987
330
197E
100
AcDbEntity
  8
0
 62
     0
100
AcDbLine
 10
2703.976331257358
 20
2002.526404320303
 30
0.0
 11
2712.461612631597
 21
2011.011685694541
 31
0.0
  0
LINE
  5
1988
330
197E
100
AcDbEntity
  8
0
 62
     0
100
AcDbLine
 10
2715.290039756343
 20
2013.840112819288
 30
0.0
 11
2723.775321130582
 21
2022.325394193527
 31
0.0
  0
LINE
  5
1989
330
197E
100
AcDbEntity
  8
0
 62
     0
100
AcDbLine
 10
2695.29006137989
 20
1999.496988692327
 30
0.0
 11
2701.147904132612
 21
2005.354831445049
 31
0.0
  0
LINE
  5
198A
330
197E
100
AcDbEntity
  8
0
 62
     0
100
AcDbLine
 10
2703.976331257358
 20
2008.183258569795
 30
0.0
 11
2712.461612631596
 21
2016.668539944034
 31
0.0
  0
LINE
  5
198B
330
197E
100
AcDbEntity
  8
0
 62
     0
100
AcDbLine
 10
2715.290039756343
 20
2019.49696706878
 30
0.0
 11
2718.482057772076
 21
2022.688985084514
 31
0.0
  0
LINE
  5
198C
330
197E
100
AcDbEntity
  8
0
 62
     0
100
AcDbLine
 10
2692.662622758373
 20
2002.526404320303
 30
0.0
 11
2701.147904132612
 21
2011.011685694541
 31
0.0
  0
LINE
  5
198D
330
197E
100
AcDbEntity
  8
0
 62
     0
100
AcDbLine
 10
2703.976331257358
 20
2013.840112819288
 30
0.0
 11
2712.461612631596
 21
2022.325394193526
 31
0.0
  0
LINE
  5
198E
330
197E
100
AcDbEntity
  8
0
 62
     0
100
AcDbLine
 10
2687.122353954997
 20
2002.642989766419
 30
0.0
 11
2689.834195633627
 21
2005.354831445049
 31
0.0
  0
LINE
  5
198F
330
197E
100
AcDbEntity
  8
0
 62
     0
100
AcDbLine
 10
2692.662622758374
 20
2008.183258569795
 30
0.0
 11
2701.147904132612
 21
2016.668539944034
 31
0.0
  0
LINE
  5
1990
330
197E
100
AcDbEntity
  8
0
 62
     0
100
AcDbLine
 10
2703.976331257358
 20
2019.49696706878
 30
0.0
 11
2707.168349273092
 21
2022.688985084514
 31
0.0
  0
LINE
  5
1991
330
197E
100
AcDbEntity
  8
0
 62
     0
100
AcDbLine
 10
2686.765918101505
 20
2007.943408162419
 30
0.0
 11
2689.834195633627
 21
2011.011685694541
 31
0.0
  0
LINE
  5
1992
330
197E
100
AcDbEntity
  8
0
 62
     0
100
AcDbLine
 10
2692.662622758374
 20
2013.840112819288
 30
0.0
 11
2701.147904132612
 21
2022.325394193526
 31
0.0
  0
LINE
  5
1993
330
197E
100
AcDbEntity
  8
0
 62
     0
100
AcDbLine
 10
2686.765918101505
 20
2013.600262411912
 30
0.0
 11
2689.834195633627
 21
2016.668539944034
 31
0.0
  0
LINE
  5
1994
330
197E
100
AcDbEntity
  8
0
 62
     0
100
AcDbLine
 10
2692.662622758374
 20
2019.49696706878
 30
0.0
 11
2695.854640774107
 21
2022.688985084514
 31
0.0
  0
LINE
  5
1995
330
197E
100
AcDbEntity
  8
0
 62
     0
100
AcDbLine
 10
2686.765918101505
 20
2019.257116661404
 30
0.0
 11
2689.834195633627
 21
2022.325394193526
 31
0.0
  0
LINE
  5
1996
330
197E
100
AcDbEntity
  8
0
 62
     0
100
AcDbLine
 10
2717.917478377859
 20
1999.496988692327
 30
0.0
 11
2723.775321130581
 21
2005.354831445049
 31
0.0
  0
LINE
  5
1997
330
197E
100
AcDbEntity
  8
0
 62
     0
100
AcDbLine
 10
2726.603748255328
 20
2008.183258569796
 30
0.0
 11
2731.635890503999
 21
2013.215400818467
 31
0.0
  0
LINE
  5
1998
330
197E
100
AcDbEntity
  8
0
 62
     0
100
AcDbLine
 10
2731.635890504
 20
2013.215400818467
 30
0.0
 11
2735.089029629566
 21
2016.668539944033
 31
0.0
  0
LINE
  5
1999
330
197E
100
AcDbEntity
  8
0
 62
     0
100
AcDbLine
 10
2737.917456754312
 20
2019.496967068779
 30
0.0
 11
2741.109474770046
 21
2022.688985084513
 31
0.0
  0
LINE
  5
199A
330
197E
100
AcDbEntity
  8
0
 62
     0
100
AcDbLine
 10
2723.574332627352
 20
1999.496988692327
 30
0.0
 11
2723.775321130581
 21
1999.697977195557
 31
0.0
  0
LINE
  5
199B
330
197E
100
AcDbEntity
  8
0
 62
     0
100
AcDbLine
 10
2726.603748255328
 20
2002.526404320303
 30
0.0
 11
2731.635890503999
 21
2007.558546568975
 31
0.0
  0
LINE
  5
199C
330
197E
100
AcDbEntity
  8
0
 62
     0
100
AcDbLine
 10
2731.635890504
 20
2007.558546568975
 30
0.0
 11
2735.089029629566
 21
2011.011685694541
 31
0.0
  0
LINE
  5
199D
330
197E
100
AcDbEntity
  8
0
 62
     0
100
AcDbLine
 10
2737.917456754312
 20
2013.840112819288
 30
0.0
 11
2746.402738128551
 21
2022.325394193526
 31
0.0
  0
LINE
  5
199E
330
197E
100
AcDbEntity
  8
0
 62
     0
100
AcDbLine
 10
2729.231186876844
 20
1999.496988692327
 30
0.0
 11
2731.635890504
 21
2001.901692319482
 31
0.0
  0
LINE
  5
199F
330
197E
100
AcDbEntity
  8
0
 62
     0
100
AcDbLine
 10
2731.635890504
 20
2001.901692319483
 30
0.0
 11
2735.089029629566
 21
2005.354831445049
 31
0.0
  0
LINE
  5
19A0
330
197E
100
AcDbEntity
  8
0
 62
     0
100
AcDbLine
 10
2737.917456754312
 20
2008.183258569795
 30
0.0
 11
2746.402738128551
 21
2016.668539944034
 31
0.0
  0
LINE
  5
19A1
330
197E
100
AcDbEntity
  8
0
 62
     0
100
AcDbLine
 10
2749.231165253297
 20
2019.49696706878
 30
0.0
 11
2752.423183269031
 21
2022.688985084514
 31
0.0
  0
LINE
  5
19A2
330
197E
100
AcDbEntity
  8
0
 62
     0
100
AcDbLine
 10
2734.888041126337
 20
1999.496988692327
 30
0.0
 11
2735.089029629566
 21
1999.697977195557
 31
0.0
  0
LINE
  5
19A3
330
197E
100
AcDbEntity
  8
0
 62
     0
100
AcDbLine
 10
2737.917456754312
 20
2002.526404320303
 30
0.0
 11
2746.402738128551
 21
2011.011685694542
 31
0.0
  0
LINE
  5
19A4
330
197E
100
AcDbEntity
  8
0
 62
     0
100
AcDbLine
 10
2749.231165253297
 20
2013.840112819288
 30
0.0
 11
2757.716446627536
 21
2022.325394193527
 31
0.0
  0
LINE
  5
19A5
330
197E
100
AcDbEntity
  8
0
 62
     0
100
AcDbLine
 10
2740.544895375829
 20
1999.496988692327
 30
0.0
 11
2746.402738128551
 21
2005.354831445049
 31
0.0
  0
LINE
  5
19A6
330
197E
100
AcDbEntity
  8
0
 62
     0
100
AcDbLine
 10
2749.231165253297
 20
2008.183258569796
 30
0.0
 11
2757.716446627536
 21
2016.668539944034
 31
0.0
  0
LINE
  5
19A7
330
197E
100
AcDbEntity
  8
0
 62
     0
100
AcDbLine
 10
2760.544873752282
 20
2019.49696706878
 30
0.0
 11
2763.736891768016
 21
2022.688985084514
 31
0.0
  0
LINE
  5
19A8
330
197E
100
AcDbEntity
  8
0
 62
     0
100
AcDbLine
 10
2746.201749625322
 20
1999.496988692327
 30
0.0
 11
2746.402738128551
 21
1999.697977195557
 31
0.0
  0
LINE
  5
19A9
330
197E
100
AcDbEntity
  8
0
 62
     0
100
AcDbLine
 10
2749.231165253297
 20
2002.526404320303
 30
0.0
 11
2757.716446627536
 21
2011.011685694542
 31
0.0
  0
LINE
  5
19AA
330
197E
100
AcDbEntity
  8
0
 62
     0
100
AcDbLine
 10
2760.544873752282
 20
2013.840112819288
 30
0.0
 11
2761.021022527084
 21
2014.31626159409
 31
0.0
  0
LINE
  5
19AB
330
197E
100
AcDbEntity
  8
0
 62
     0
100
AcDbLine
 10
2751.858603874814
 20
1999.496988692327
 30
0.0
 11
2755.915954095707
 21
2003.55433891322
 31
0.0
  0
LINE
  5
19AC
330
197E
100
AcDbEntity
  8
0
 62
     0
100
AcDbLine
 10
2735.290018133304
 20
1999.496988692327
 30
0.0
 11
2732.260602505074
 21
2002.526404320557
 31
0.0
  0
LINE
  5
19AD
330
197E
100
AcDbEntity
  8
0
 62
     0
100
AcDbLine
 10
2729.432175380328
 20
2005.354831445303
 30
0.0
 11
2720.94689400609
 21
2013.840112819542
 31
0.0
  0
LINE
  5
19AE
330
197E
100
AcDbEntity
  8
0
 62
     0
100
AcDbLine
 10
2718.118466881343
 20
2016.668539944288
 30
0.0
 11
2712.098021741117
 21
2022.688985084514
 31
0.0
  0
LINE
  5
19AF
330
197E
100
AcDbEntity
  8
0
 62
     0
100
AcDbLine
 10
2740.745883879313
 20
1999.697977195809
 30
0.0
 11
2732.260602505074
 21
2008.183258570047
 31
0.0
  0
LINE
  5
19B0
330
197E
100
AcDbEntity
  8
0
 62
     0
100
AcDbLine
 10
2729.432175380328
 20
2011.011685694795
 30
0.0
 11
2720.94689400609
 21
2019.496967069033
 31
0.0
  0
LINE
  5
19B1
330
197E
100
AcDbEntity
  8
0
 62
     0
100
AcDbLine
 10
2718.118466881343
 20
2022.325394193779
 30
0.0
 11
2717.754875990608
 21
2022.688985084514
 31
0.0
  0
LINE
  5
19B2
330
197E
100
AcDbEntity
  8
0
 62
     0
100
AcDbLine
 10
2746.603726632287
 20
1999.496988692327
 30
0.0
 11
2743.574311004059
 21
2002.526404320556
 31
0.0
  0
LINE
  5
19B3
330
197E
100
AcDbEntity
  8
0
 62
     0
100
AcDbLine
 10
2740.745883879312
 20
2005.354831445302
 30
0.0
 11
2732.260602505073
 21
2013.84011281954
 31
0.0
  0
LINE
  5
19B4
330
197E
100
AcDbEntity
  8
0
 62
     0
100
AcDbLine
 10
2729.432175380328
 20
2016.668539944287
 30
0.0
 11
2723.411730240101
 21
2022.688985084514
 31
0.0
  0
LINE
  5
19B5
330
197E
100
AcDbEntity
  8
0
 62
     0
100
AcDbLine
 10
2752.059592378297
 20
1999.697977195809
 30
0.0
 11
2743.574311004059
 21
2008.183258570048
 31
0.0
  0
LINE
  5
19B6
330
197E
100
AcDbEntity
  8
0
 62
     0
100
AcDbLine
 10
2740.745883879312
 20
2011.011685694794
 30
0.0
 11
2732.260602505073
 21
2019.496967069033
 31
0.0
  0
LINE
  5
19B7
330
197E
100
AcDbEntity
  8
0
 62
     0
100
AcDbLine
 10
2729.432175380328
 20
2022.32539419378
 30
0.0
 11
2729.068584489593
 21
2022.688985084514
 31
0.0
  0
LINE
  5
19B8
330
197E
100
AcDbEntity
  8
0
 62
     0
100
AcDbLine
 10
2755.311322949602
 20
2002.103100873998
 30
0.0
 11
2754.888019503044
 21
2002.526404320557
 31
0.0
  0
LINE
  5
19B9
330
197E
100
AcDbEntity
  8
0
 62
     0
100
AcDbLine
 10
2752.059592378297
 20
2005.354831445302
 30
0.0
 11
2743.574311004059
 21
2013.840112819541
 31
0.0
  0
LINE
  5
19BA
330
197E
100
AcDbEntity
  8
0
 62
     0
100
AcDbLine
 10
2740.745883879312
 20
2016.668539944288
 30
0.0
 11
2734.725438739086
 21
2022.688985084514
 31
0.0
  0
LINE
  5
19BB
330
197E
100
AcDbEntity
  8
0
 62
     0
100
AcDbLine
 10
2757.00720871049
 20
2006.064069362603
 30
0.0
 11
2754.888019503044
 21
2008.183258570049
 31
0.0
  0
LINE
  5
19BC
330
197E
100
AcDbEntity
  8
0
 62
     0
100
AcDbLine
 10
2752.059592378297
 20
2011.011685694795
 30
0.0
 11
2743.574311004059
 21
2019.496967069033
 31
0.0
  0
LINE
  5
19BD
330
197E
100
AcDbEntity
  8
0
 62
     0
100
AcDbLine
 10
2740.745883879312
 20
2022.32539419378
 30
0.0
 11
2740.382292988579
 21
2022.688985084514
 31
0.0
  0
LINE
  5
19BE
330
197E
100
AcDbEntity
  8
0
 62
     0
100
AcDbLine
 10
2758.802332020171
 20
2009.925800302414
 30
0.0
 11
2754.888019503044
 21
2013.840112819541
 31
0.0
  0
LINE
  5
19BF
330
197E
100
AcDbEntity
  8
0
 62
     0
100
AcDbLine
 10
2752.059592378297
 20
2016.668539944287
 30
0.0
 11
2746.039147238071
 21
2022.688985084514
 31
0.0
  0
LINE
  5
19C0
330
197E
100
AcDbEntity
  8
0
 62
     0
100
AcDbLine
 10
2760.693435000926
 20
2013.691551571151
 30
0.0
 11
2754.888019503044
 21
2019.496967069033
 31
0.0
  0
LINE
  5
19C1
330
197E
100
AcDbEntity
  8
0
 62
     0
100
AcDbLine
 10
2752.059592378298
 20
2022.32539419378
 30
0.0
 11
2751.696001487563
 21
2022.688985084514
 31
0.0
  0
LINE
  5
19C2
330
197E
100
AcDbEntity
  8
0
 62
     0
100
AcDbLine
 10
2762.677684738563
 20
2017.364156083006
 30
0.0
 11
2757.352855737055
 21
2022.688985084514
 31
0.0
  0
LINE
  5
19C3
330
197E
100
AcDbEntity
  8
0
 62
     0
100
AcDbLine
 10
2763.373300877282
 20
2022.32539419378
 30
0.0
 11
2763.009709986548
 21
2022.688985084514
 31
0.0
  0
LINE
  5
19C4
330
197E
100
AcDbEntity
  8
0
 62
     0
100
AcDbLine
 10
2729.432175380328
 20
1999.69797719581
 30
0.0
 11
2720.94689400609
 21
2008.183258570049
 31
0.0
  0
LINE
  5
19C5
330
197E
100
AcDbEntity
  8
0
 62
     0
100
AcDbLine
 10
2718.118466881343
 20
2011.011685694795
 30
0.0
 11
2709.633185507104
 21
2019.496967069034
 31
0.0
  0
LINE
  5
19C6
330
197E
100
AcDbEntity
  8
0
 62
     0
100
AcDbLine
 10
2706.804758382358
 20
2022.32539419378
 30
0.0
 11
2706.441167491625
 21
2022.688985084514
 31
0.0
  0
LINE
  5
19C7
330
197E
100
AcDbEntity
  8
0
 62
     0
100
AcDbLine
 10
2723.976309634319
 20
1999.496988692327
 30
0.0
 11
2720.94689400609
 21
2002.526404320557
 31
0.0
  0
LINE
  5
19C8
330
197E
100
AcDbEntity
  8
0
 62
     0
100
AcDbLine
 10
2718.118466881343
 20
2005.354831445303
 30
0.0
 11
2709.633185507104
 21
2013.840112819542
 31
0.0
  0
LINE
  5
19C9
330
197E
100
AcDbEntity
  8
0
 62
     0
100
AcDbLine
 10
2706.804758382358
 20
2016.668539944288
 30
0.0
 11
2700.784313242132
 21
2022.688985084514
 31
0.0
  0
LINE
  5
19CA
330
197E
100
AcDbEntity
  8
0
 62
     0
100
AcDbLine
 10
2718.118466881343
 20
1999.69797719581
 30
0.0
 11
2709.633185507104
 21
2008.183258570049
 31
0.0
  0
LINE
  5
19CB
330
197E
100
AcDbEntity
  8
0
 62
     0
100
AcDbLine
 10
2706.804758382358
 20
2011.011685694795
 30
0.0
 11
2698.31947700812
 21
2019.496967069034
 31
0.0
  0
LINE
  5
19CC
330
197E
100
AcDbEntity
  8
0
 62
     0
100
AcDbLine
 10
2695.491049883373
 20
2022.32539419378
 30
0.0
 11
2695.127458992639
 21
2022.688985084514
 31
0.0
  0
LINE
  5
19CD
330
197E
100
AcDbEntity
  8
0
 62
     0
100
AcDbLine
 10
2712.662601135334
 20
1999.496988692327
 30
0.0
 11
2709.633185507104
 21
2002.526404320557
 31
0.0
  0
LINE
  5
19CE
330
197E
100
AcDbEntity
  8
0
 62
     0
100
AcDbLine
 10
2706.804758382358
 20
2005.354831445302
 30
0.0
 11
2698.31947700812
 21
2013.840112819541
 31
0.0
  0
LINE
  5
19CF
330
197E
100
AcDbEntity
  8
0
 62
     0
100
AcDbLine
 10
2695.491049883373
 20
2016.668539944287
 30
0.0
 11
2689.470604743147
 21
2022.688985084514
 31
0.0
  0
LINE
  5
19D0
330
197E
100
AcDbEntity
  8
0
 62
     0
100
AcDbLine
 10
2706.804758382358
 20
1999.69797719581
 30
0.0
 11
2698.31947700812
 21
2008.183258570049
 31
0.0
  0
LINE
  5
19D1
330
197E
100
AcDbEntity
  8
0
 62
     0
100
AcDbLine
 10
2695.491049883373
 20
2011.011685694795
 30
0.0
 11
2687.005768509135
 21
2019.496967069034
 31
0.0
  0
LINE
  5
19D2
330
197E
100
AcDbEntity
  8
0
 62
     0
100
AcDbLine
 10
2701.348892636349
 20
1999.496988692327
 30
0.0
 11
2698.31947700812
 21
2002.526404320557
 31
0.0
  0
LINE
  5
19D3
330
197E
100
AcDbEntity
  8
0
 62
     0
100
AcDbLine
 10
2695.491049883373
 20
2005.354831445302
 30
0.0
 11
2687.005768509135
 21
2013.840112819541
 31
0.0
  0
LINE
  5
19D4
330
197E
100
AcDbEntity
  8
0
 62
     0
100
AcDbLine
 10
2695.491049883373
 20
1999.69797719581
 30
0.0
 11
2687.005768509135
 21
2008.183258570049
 31
0.0
  0
LINE
  5
19D5
330
197E
100
AcDbEntity
  8
0
 62
     0
100
AcDbLine
 10
2689.484204696917
 20
2000.047968132774
 30
0.0
 11
2687.316897541951
 21
2002.215275287741
 31
0.0
  0
ENDBLK
  5
19D7
330
197E
100
AcDbEntity
  8
0
100
AcDbBlockEnd
  0
BLOCK
  5
1A57
330
19D8
100
AcDbEntity
  8
0
100
AcDbBlockBegin
  2
*X10
 70
     1
 10
0.0
 20
0.0
 30
0.0
  3
*X10
  1

  0
LINE
  5
19D9
330
19D8
100
AcDbEntity
  8
0
 62
     0
100
AcDbLine
 10
106.3438484705329
 20
241.5884870300659
 30
0.0
 11
106.3438484705329
 21
241.5884870300659
 31
0.0
  0
LINE
  5
19DA
330
19D8
100
AcDbEntity
  8
0
 62
     0
100
AcDbLine
 10
110.2114460044527
 20
244.5561989964834
 30
0.0
 11
110.2114460044527
 21
244.5561989964834
 31
0.0
  0
LINE
  5
19DB
330
19D8
100
AcDbEntity
  8
0
 62
     0
100
AcDbLine
 10
98.49107512899085
 20
241.4883229328812
 30
0.0
 11
98.49107512899085
 21
241.4883229328812
 31
0.0
  0
LINE
  5
19DC
330
19D8
100
AcDbEntity
  8
0
 62
     0
100
AcDbLine
 10
102.1087663607189
 20
244.2642750491609
 30
0.0
 11
102.1087663607189
 21
244.2642750491609
 31
0.0
  0
LINE
  5
19DD
330
19D8
100
AcDbEntity
  8
0
 62
     0
100
AcDbLine
 10
106.1548683962042
 20
247.3689583371054
 30
0.0
 11
106.1548683962042
 21
247.3689583371054
 31
0.0
  0
LINE
  5
19DE
330
19D8
100
AcDbEntity
  8
0
 62
     0
100
AcDbLine
 10
98.30209505466202
 20
247.2687942399206
 30
0.0
 11
98.30209505466202
 21
247.2687942399206
 31
0.0
  0
LINE
  5
19DF
330
19D8
100
AcDbEntity
  8
0
 62
     0
100
AcDbLine
 10
101.91978628639
 20
250.0447463562004
 30
0.0
 11
101.91978628639
 21
250.0447463562004
 31
0.0
  0
LINE
  5
19E0
330
19D8
100
AcDbEntity
  8
0
 62
     0
100
AcDbLine
 10
124.9825678886562
 20
267.7414410974839
 30
0.0
 11
124.9825678886562
 21
267.7414410974839
 31
0.0
  0
LINE
  5
19E1
330
19D8
100
AcDbEntity
  8
0
 62
     0
100
AcDbLine
 10
94.24551744641341
 20
250.0815535805426
 30
0.0
 11
94.24551744641341
 21
250.0815535805426
 31
0.0
  0
LINE
  5
19E2
330
19D8
100
AcDbEntity
  8
0
 62
     0
100
AcDbLine
 10
98.11311498033319
 20
253.0492655469601
 30
0.0
 11
98.11311498033319
 21
253.0492655469601
 31
0.0
  0
LINE
  5
19E3
330
19D8
100
AcDbEntity
  8
0
 62
     0
100
AcDbLine
 10
117.3082990486796
 20
267.7782483218261
 30
0.0
 11
117.3082990486796
 21
267.7782483218261
 31
0.0
  0
LINE
  5
19E4
330
19D8
100
AcDbEntity
  8
0
 62
     0
100
AcDbLine
 10
121.1758965825993
 20
270.7459602882437
 30
0.0
 11
121.1758965825993
 21
270.7459602882437
 31
0.0
  0
LINE
  5
19E5
330
19D8
100
AcDbEntity
  8
0
 62
     0
100
AcDbLine
 10
94.0565373720846
 20
255.8620248875821
 30
0.0
 11
94.0565373720846
 21
255.8620248875821
 31
0.0
  0
LINE
  5
19E6
330
19D8
100
AcDbEntity
  8
0
 62
     0
100
AcDbLine
 10
97.92413490600438
 20
258.8297368539996
 30
0.0
 11
97.92413490600438
 21
258.8297368539996
 31
0.0
  0
LINE
  5
19E7
330
19D8
100
AcDbEntity
  8
0
 62
     0
100
AcDbLine
 10
101.5418261377324
 20
261.6056889702794
 30
0.0
 11
101.5418261377324
 21
261.6056889702794
 31
0.0
  0
LINE
  5
19E8
330
19D8
100
AcDbEntity
  8
0
 62
     0
100
AcDbLine
 10
109.4555257071374
 20
267.6780842246413
 30
0.0
 11
109.4555257071374
 21
267.6780842246413
 31
0.0
  0
LINE
  5
19E9
330
19D8
100
AcDbEntity
  8
0
 62
     0
100
AcDbLine
 10
113.0732169388654
 20
270.4540363409211
 30
0.0
 11
113.0732169388654
 21
270.4540363409211
 31
0.0
  0
LINE
  5
19EA
330
19D8
100
AcDbEntity
  8
0
 62
     0
100
AcDbLine
 10
117.1193189743507
 20
273.5587196288656
 30
0.0
 11
117.1193189743507
 21
273.5587196288656
 31
0.0
  0
LINE
  5
19EB
330
19D8
100
AcDbEntity
  8
0
 62
     0
100
AcDbLine
 10
93.86755729775577
 20
261.6424961946215
 30
0.0
 11
93.86755729775577
 21
261.6424961946215
 31
0.0
  0
LINE
  5
19EC
330
19D8
100
AcDbEntity
  8
0
 62
     0
100
AcDbLine
 10
97.73515483167555
 20
264.610208161039
 30
0.0
 11
97.73515483167555
 21
264.610208161039
 31
0.0
  0
LINE
  5
19ED
330
19D8
100
AcDbEntity
  8
0
 62
     0
100
AcDbLine
 10
101.3528460634036
 20
267.3861602773188
 30
0.0
 11
101.3528460634036
 21
267.3861602773188
 31
0.0
  0
LINE
  5
19EE
330
19D8
100
AcDbEntity
  8
0
 62
     0
100
AcDbLine
 10
105.3989480988889
 20
270.4908435652633
 30
0.0
 11
105.3989480988889
 21
270.4908435652633
 31
0.0
  0
LINE
  5
19EF
330
19D8
100
AcDbEntity
  8
0
 62
     0
100
AcDbLine
 10
109.2665456328086
 20
273.4585555316808
 30
0.0
 11
109.2665456328086
 21
273.4585555316808
 31
0.0
  0
LINE
  5
19F0
330
19D8
100
AcDbEntity
  8
0
 62
     0
100
AcDbLine
 10
112.8842368645367
 20
276.2345076479606
 30
0.0
 11
112.8842368645367
 21
276.2345076479606
 31
0.0
  0
LINE
  5
19F1
330
19D8
100
AcDbEntity
  8
0
 62
     0
100
AcDbLine
 10
97.54617475734669
 20
270.3906794680785
 30
0.0
 11
97.54617475734669
 21
270.3906794680785
 31
0.0
  0
LINE
  5
19F2
330
19D8
100
AcDbEntity
  8
0
 62
     0
100
AcDbLine
 10
101.1638659890747
 20
273.1666315843583
 30
0.0
 11
101.1638659890747
 21
273.1666315843583
 31
0.0
  0
LINE
  5
19F3
330
19D8
100
AcDbEntity
  8
0
 62
     0
100
AcDbLine
 10
110.4004260787815
 20
238.7757276894439
 30
0.0
 11
110.4004260787815
 21
238.7757276894439
 31
0.0
  0
LINE
  5
19F4
330
19D8
100
AcDbEntity
  8
0
 62
     0
100
AcDbLine
 10
114.0181173105096
 20
241.5516798057237
 30
0.0
 11
114.0181173105096
 21
241.5516798057237
 31
0.0
  0
LINE
  5
19F5
330
19D8
100
AcDbEntity
  8
0
 62
     0
100
AcDbLine
 10
118.0642193459949
 20
244.6563630936682
 30
0.0
 11
118.0642193459949
 21
244.6563630936682
 31
0.0
  0
LINE
  5
19F6
330
19D8
100
AcDbEntity
  8
0
 62
     0
100
AcDbLine
 10
118.2531994203237
 20
238.8758917866287
 30
0.0
 11
118.2531994203237
 21
238.8758917866287
 31
0.0
  0
LINE
  5
19F7
330
19D8
100
AcDbEntity
  8
0
 62
     0
100
AcDbLine
 10
122.1207969542435
 20
241.8436037530462
 30
0.0
 11
122.1207969542435
 21
241.8436037530462
 31
0.0
  0
LINE
  5
19F8
330
19D8
100
AcDbEntity
  8
0
 62
     0
100
AcDbLine
 10
125.7384881859715
 20
244.619555869326
 30
0.0
 11
125.7384881859715
 21
244.619555869326
 31
0.0
  0
LINE
  5
19F9
330
19D8
100
AcDbEntity
  8
0
 62
     0
100
AcDbLine
 10
91.9113680268915
 20
252.8913615456751
 30
0.0
 11
91.9113680268915
 21
252.8913615456751
 31
0.0
  0
LINE
  5
19FA
330
19D8
100
AcDbEntity
  8
0
 62
     0
100
AcDbLine
 10
94.35032238587108
 20
253.2124559785363
 30
0.0
 11
94.35032238587108
 21
253.2124559785363
 31
0.0
  0
LINE
  5
19FB
330
19D8
100
AcDbEntity
  8
0
 62
     0
100
AcDbLine
 10
98.42516076611744
 20
253.7489186285608
 30
0.0
 11
98.42516076611744
 21
253.7489186285608
 31
0.0
  0
LINE
  5
19FC
330
19D8
100
AcDbEntity
  8
0
 62
     0
100
AcDbLine
 10
99.98668642278119
 20
253.9544973813073
 30
0.0
 11
99.98668642278119
 21
253.9544973813073
 31
0.0
  0
LINE
  5
19FD
330
19D8
100
AcDbEntity
  8
0
 62
     0
100
AcDbLine
 10
91.58433410578458
 20
260.6157583385932
 30
0.0
 11
91.58433410578458
 21
260.6157583385932
 31
0.0
  0
LINE
  5
19FE
330
19D8
100
AcDbEntity
  8
0
 62
     0
100
AcDbLine
 10
95.65917248603094
 20
261.1522209886177
 30
0.0
 11
95.65917248603094
 21
261.1522209886177
 31
0.0
  0
LINE
  5
19FF
330
19D8
100
AcDbEntity
  8
0
 62
     0
100
AcDbLine
 10
97.22069814269469
 20
261.3577997413643
 30
0.0
 11
97.22069814269469
 21
261.3577997413643
 31
0.0
  0
LINE
  5
1A00
330
19D8
100
AcDbEntity
  8
0
 62
     0
100
AcDbLine
 10
99.65965250167426
 20
261.6788941742256
 30
0.0
 11
99.65965250167426
 21
261.6788941742256
 31
0.0
  0
LINE
  5
1A01
330
19D8
100
AcDbEntity
  8
0
 62
     0
100
AcDbLine
 10
96.8936642215878
 20
269.0821965342824
 30
0.0
 11
96.8936642215878
 21
269.0821965342824
 31
0.0
  0
LINE
  5
1A02
330
19D8
100
AcDbEntity
  8
0
 62
     0
100
AcDbLine
 10
100.9685026018341
 20
269.6186591843069
 30
0.0
 11
100.9685026018341
 21
269.6186591843069
 31
0.0
  0
LINE
  5
1A03
330
19D8
100
AcDbEntity
  8
0
 62
     0
100
AcDbLine
 10
102.5300282584979
 20
269.8242379370535
 30
0.0
 11
102.5300282584979
 21
269.8242379370535
 31
0.0
  0
LINE
  5
1A04
330
19D8
100
AcDbEntity
  8
0
 62
     0
100
AcDbLine
 10
104.9689826174775
 20
270.1453323699148
 30
0.0
 11
104.9689826174775
 21
270.1453323699148
 31
0.0
  0
LINE
  5
1A05
330
19D8
100
AcDbEntity
  8
0
 62
     0
100
AcDbLine
 10
109.0438209977238
 20
270.6817950199392
 30
0.0
 11
109.0438209977238
 21
270.6817950199392
 31
0.0
  0
LINE
  5
1A06
330
19D8
100
AcDbEntity
  8
0
 62
     0
100
AcDbLine
 10
110.6053466543876
 20
270.8873737726858
 30
0.0
 11
110.6053466543876
 21
270.8873737726858
 31
0.0
  0
LINE
  5
1A07
330
19D8
100
AcDbEntity
  8
0
 62
     0
100
AcDbLine
 10
113.0443010133671
 20
271.2084682055472
 30
0.0
 11
113.0443010133671
 21
271.2084682055472
 31
0.0
  0
LINE
  5
1A08
330
19D8
100
AcDbEntity
  8
0
 62
     0
100
AcDbLine
 10
117.1191393936135
 20
271.7449308555716
 30
0.0
 11
117.1191393936135
 21
271.7449308555716
 31
0.0
  0
LINE
  5
1A09
330
19D8
100
AcDbEntity
  8
0
 62
     0
100
AcDbLine
 10
118.6806650502773
 20
271.9505096083182
 30
0.0
 11
118.6806650502773
 21
271.9505096083182
 31
0.0
  0
LINE
  5
1A0A
330
19D8
100
AcDbEntity
  8
0
 62
     0
100
AcDbLine
 10
121.1196194092568
 20
272.2716040411795
 30
0.0
 11
121.1196194092568
 21
272.2716040411795
 31
0.0
  0
LINE
  5
1A0B
330
19D8
100
AcDbEntity
  8
0
 62
     0
100
AcDbLine
 10
94.67735630697802
 20
245.4880591856182
 30
0.0
 11
94.67735630697802
 21
245.4880591856182
 31
0.0
  0
LINE
  5
1A0C
330
19D8
100
AcDbEntity
  8
0
 62
     0
100
AcDbLine
 10
97.1163106659576
 20
245.8091536184795
 30
0.0
 11
97.1163106659576
 21
245.8091536184795
 31
0.0
  0
LINE
  5
1A0D
330
19D8
100
AcDbEntity
  8
0
 62
     0
100
AcDbLine
 10
101.1911490462039
 20
246.3456162685039
 30
0.0
 11
101.1911490462039
 21
246.3456162685039
 31
0.0
  0
LINE
  5
1A0E
330
19D8
100
AcDbEntity
  8
0
 62
     0
100
AcDbLine
 10
102.7526747028677
 20
246.5511950212505
 30
0.0
 11
102.7526747028677
 21
246.5511950212505
 31
0.0
  0
LINE
  5
1A0F
330
19D8
100
AcDbEntity
  8
0
 62
     0
100
AcDbLine
 10
105.1916290618473
 20
246.8722894541118
 30
0.0
 11
105.1916290618473
 21
246.8722894541118
 31
0.0
  0
LINE
  5
1A10
330
19D8
100
AcDbEntity
  8
0
 62
     0
100
AcDbLine
 10
103.9571373262904
 20
238.942313908447
 30
0.0
 11
103.9571373262904
 21
238.942313908447
 31
0.0
  0
LINE
  5
1A11
330
19D8
100
AcDbEntity
  8
0
 62
     0
100
AcDbLine
 10
105.5186629829542
 20
239.1478926611935
 30
0.0
 11
105.5186629829542
 21
239.1478926611935
 31
0.0
  0
LINE
  5
1A12
330
19D8
100
AcDbEntity
  8
0
 62
     0
100
AcDbLine
 10
107.9576173419337
 20
239.4689870940549
 30
0.0
 11
107.9576173419337
 21
239.4689870940549
 31
0.0
  0
LINE
  5
1A13
330
19D8
100
AcDbEntity
  8
0
 62
     0
100
AcDbLine
 10
112.0324557221801
 20
240.0054497440793
 30
0.0
 11
112.0324557221801
 21
240.0054497440793
 31
0.0
  0
LINE
  5
1A14
330
19D8
100
AcDbEntity
  8
0
 62
     0
100
AcDbLine
 10
113.5939813788438
 20
240.2110284968259
 30
0.0
 11
113.5939813788438
 21
240.2110284968259
 31
0.0
  0
LINE
  5
1A15
330
19D8
100
AcDbEntity
  8
0
 62
     0
100
AcDbLine
 10
116.0329357378234
 20
240.5321229296872
 30
0.0
 11
116.0329357378234
 21
240.5321229296872
 31
0.0
  0
LINE
  5
1A16
330
19D8
100
AcDbEntity
  8
0
 62
     0
100
AcDbLine
 10
120.1077741180698
 20
241.0685855797116
 30
0.0
 11
120.1077741180698
 21
241.0685855797116
 31
0.0
  0
LINE
  5
1A17
330
19D8
100
AcDbEntity
  8
0
 62
     0
100
AcDbLine
 10
121.6692997747335
 20
241.2741643324582
 30
0.0
 11
121.6692997747335
 21
241.2741643324582
 31
0.0
  0
LINE
  5
1A18
330
19D8
100
AcDbEntity
  8
0
 62
     0
100
AcDbLine
 10
124.1082541337131
 20
241.5952587653195
 30
0.0
 11
124.1082541337131
 21
241.5952587653195
 31
0.0
  0
LINE
  5
1A19
330
19D8
100
AcDbEntity
  8
0
 62
     0
100
AcDbLine
 10
97.19973585573924
 20
269.9766348934648
 30
0.0
 11
97.19973585573924
 21
269.9766348934648
 31
0.0
  0
LINE
  5
1A1A
330
19D8
100
AcDbEntity
  8
0
 62
     0
100
AcDbLine
 10
101.7540496631288
 20
267.0752170083919
 30
0.0
 11
101.7540496631288
 21
267.0752170083919
 31
0.0
  0
LINE
  5
1A1B
330
19D8
100
AcDbEntity
  8
0
 62
     0
100
AcDbLine
 10
105.2770742722744
 20
270.7995614665959
 30
0.0
 11
105.2770742722744
 21
270.7995614665959
 31
0.0
  0
LINE
  5
1A1C
330
19D8
100
AcDbEntity
  8
0
 62
     0
100
AcDbLine
 10
106.5421614409938
 20
269.9936120540757
 30
0.0
 11
106.5421614409938
 21
269.9936120540757
 31
0.0
  0
LINE
  5
1A1D
330
19D8
100
AcDbEntity
  8
0
 62
     0
100
AcDbLine
 10
111.0964752483833
 20
267.0921941690028
 30
0.0
 11
111.0964752483833
 21
267.0921941690028
 31
0.0
  0
LINE
  5
1A1E
330
19D8
100
AcDbEntity
  8
0
 62
     0
100
AcDbLine
 10
108.673590164548
 20
274.6045008660519
 30
0.0
 11
108.673590164548
 21
274.6045008660519
 31
0.0
  0
LINE
  5
1A1F
330
19D8
100
AcDbEntity
  8
0
 62
     0
100
AcDbLine
 10
114.6194998575288
 20
270.8165386272068
 30
0.0
 11
114.6194998575288
 21
270.8165386272068
 31
0.0
  0
LINE
  5
1A20
330
19D8
100
AcDbEntity
  8
0
 62
     0
100
AcDbLine
 10
115.8845870262481
 20
270.0105892146865
 30
0.0
 11
115.8845870262481
 21
270.0105892146865
 31
0.0
  0
LINE
  5
1A21
330
19D8
100
AcDbEntity
  8
0
 62
     0
100
AcDbLine
 10
120.4389008336377
 20
267.1091713296137
 30
0.0
 11
120.4389008336377
 21
267.1091713296137
 31
0.0
  0
LINE
  5
1A22
330
19D8
100
AcDbEntity
  8
0
 62
     0
100
AcDbLine
 10
118.0160157498025
 20
274.6214780266628
 30
0.0
 11
118.0160157498025
 21
274.6214780266628
 31
0.0
  0
LINE
  5
1A23
330
19D8
100
AcDbEntity
  8
0
 62
     0
100
AcDbLine
 10
123.9619254427834
 20
270.8335157878177
 30
0.0
 11
123.9619254427834
 21
270.8335157878177
 31
0.0
  0
LINE
  5
1A24
330
19D8
100
AcDbEntity
  8
0
 62
     0
100
AcDbLine
 10
125.2270126115027
 20
270.0275663752975
 30
0.0
 11
125.2270126115027
 21
270.0275663752975
 31
0.0
  0
LINE
  5
1A25
330
19D8
100
AcDbEntity
  8
0
 62
     0
100
AcDbLine
 10
98.35753377085531
 20
263.2702776089359
 30
0.0
 11
98.35753377085531
 21
263.2702776089359
 31
0.0
  0
LINE
  5
1A26
330
19D8
100
AcDbEntity
  8
0
 62
     0
100
AcDbLine
 10
99.62262093957463
 20
262.4643281964157
 30
0.0
 11
99.62262093957463
 21
262.4643281964157
 31
0.0
  0
LINE
  5
1A27
330
19D8
100
AcDbEntity
  8
0
 62
     0
100
AcDbLine
 10
94.83450916170964
 20
259.5459331507319
 30
0.0
 11
94.83450916170964
 21
259.5459331507319
 31
0.0
  0
LINE
  5
1A28
330
19D8
100
AcDbEntity
  8
0
 62
     0
100
AcDbLine
 10
100.7804188546905
 20
255.7579709118868
 30
0.0
 11
100.7804188546905
 21
255.7579709118868
 31
0.0
  0
LINE
  5
1A29
330
19D8
100
AcDbEntity
  8
0
 62
     0
100
AcDbLine
 10
118.3651304998892
 20
244.5552740778556
 30
0.0
 11
118.3651304998892
 21
244.5552740778556
 31
0.0
  0
LINE
  5
1A2A
330
19D8
100
AcDbEntity
  8
0
 62
     0
100
AcDbLine
 10
91.43799326943604
 20
255.7409937512759
 30
0.0
 11
91.43799326943604
 21
255.7409937512759
 31
0.0
  0
LINE
  5
1A2B
330
19D8
100
AcDbEntity
  8
0
 62
     0
100
AcDbLine
 10
92.70308043815537
 20
254.9350443387557
 30
0.0
 11
92.70308043815537
 21
254.9350443387557
 31
0.0
  0
LINE
  5
1A2C
330
19D8
100
AcDbEntity
  8
0
 62
     0
100
AcDbLine
 10
97.25739424554495
 20
252.0336264536828
 30
0.0
 11
97.25739424554495
 21
252.0336264536828
 31
0.0
  0
LINE
  5
1A2D
330
19D8
100
AcDbEntity
  8
0
 62
     0
100
AcDbLine
 10
103.2033039385258
 20
248.2456642148378
 30
0.0
 11
103.2033039385258
 21
248.2456642148378
 31
0.0
  0
LINE
  5
1A2E
330
19D8
100
AcDbEntity
  8
0
 62
     0
100
AcDbLine
 10
104.4683911072451
 20
247.4397148023175
 30
0.0
 11
104.4683911072451
 21
247.4397148023175
 31
0.0
  0
LINE
  5
1A2F
330
19D8
100
AcDbEntity
  8
0
 62
     0
100
AcDbLine
 10
109.0227049146347
 20
244.5382969172447
 30
0.0
 11
109.0227049146347
 21
244.5382969172447
 31
0.0
  0
LINE
  5
1A30
330
19D8
100
AcDbEntity
  8
0
 62
     0
100
AcDbLine
 10
114.9686146076155
 20
240.7503346783995
 30
0.0
 11
114.9686146076155
 21
240.7503346783995
 31
0.0
  0
LINE
  5
1A31
330
19D8
100
AcDbEntity
  8
0
 62
     0
100
AcDbLine
 10
116.2337017763348
 20
239.9443852658793
 30
0.0
 11
116.2337017763348
 21
239.9443852658793
 31
0.0
  0
LINE
  5
1A32
330
19D8
100
AcDbEntity
  8
0
 62
     0
100
AcDbLine
 10
93.86087835327137
 20
248.2286870542269
 30
0.0
 11
93.86087835327137
 21
248.2286870542269
 31
0.0
  0
LINE
  5
1A33
330
19D8
100
AcDbEntity
  8
0
 62
     0
100
AcDbLine
 10
95.12596552199068
 20
247.4227376417066
 30
0.0
 11
95.12596552199068
 21
247.4227376417066
 31
0.0
  0
LINE
  5
1A34
330
19D8
100
AcDbEntity
  8
0
 62
     0
100
AcDbLine
 10
99.68027932938028
 20
244.5213197566338
 30
0.0
 11
99.68027932938028
 21
244.5213197566338
 31
0.0
  0
LINE
  5
1A35
330
19D8
100
AcDbEntity
  8
0
 62
     0
100
AcDbLine
 10
105.6261890223611
 20
240.7333575177887
 30
0.0
 11
105.6261890223611
 21
240.7333575177887
 31
0.0
  0
LINE
  5
1A36
330
19D8
100
AcDbEntity
  8
0
 62
     0
100
AcDbLine
 10
106.8912761910804
 20
239.9274081052685
 30
0.0
 11
106.8912761910804
 21
239.9274081052685
 31
0.0
  0
LINE
  5
1A37
330
19D8
100
AcDbEntity
  8
0
 62
     0
100
AcDbLine
 10
111.44558999847
 20
237.0259902201956
 30
0.0
 11
111.44558999847
 21
237.0259902201956
 31
0.0
  0
LINE
  5
1A38
330
19D8
100
AcDbEntity
  8
0
 62
     0
100
AcDbLine
 10
97.15195820477115
 20
267.1913955369581
 30
0.0
 11
97.15195820477115
 21
267.1913955369581
 31
0.0
  0
LINE
  5
1A39
330
19D8
100
AcDbEntity
  8
0
 62
     0
100
AcDbLine
 10
97.70491620737875
 20
266.6847028812463
 30
0.0
 11
97.70491620737875
 21
266.6847028812463
 31
0.0
  0
LINE
  5
1A3A
330
19D8
100
AcDbEntity
  8
0
 62
     0
100
AcDbLine
 10
100.3148779796866
 20
264.2931135462869
 30
0.0
 11
100.3148779796866
 21
264.2931135462869
 31
0.0
  0
LINE
  5
1A3B
330
19D8
100
AcDbEntity
  8
0
 62
     0
100
AcDbLine
 10
121.7475301607569
 20
244.6537062108997
 30
0.0
 11
121.7475301607569
 21
244.6537062108997
 31
0.0
  0
LINE
  5
1A3C
330
19D8
100
AcDbEntity
  8
0
 62
     0
100
AcDbLine
 10
122.3004881633645
 20
244.147013555188
 30
0.0
 11
122.3004881633645
 21
244.147013555188
 31
0.0
  0
LINE
  5
1A3D
330
19D8
100
AcDbEntity
  8
0
 62
     0
100
AcDbLine
 10
103.184364804407
 20
272.5605625726042
 30
0.0
 11
103.184364804407
 21
272.5605625726042
 31
0.0
  0
LINE
  5
1A3E
330
19D8
100
AcDbEntity
  8
0
 62
     0
100
AcDbLine
 10
106.170338018488
 20
269.8244222317608
 30
0.0
 11
106.170338018488
 21
269.8244222317608
 31
0.0
  0
LINE
  5
1A3F
330
19D8
100
AcDbEntity
  8
0
 62
     0
100
AcDbLine
 10
106.7232960210956
 20
269.3177295760491
 30
0.0
 11
106.7232960210956
 21
269.3177295760491
 31
0.0
  0
LINE
  5
1A40
330
19D8
100
AcDbEntity
  8
0
 62
     0
100
AcDbLine
 10
109.3332577934035
 20
266.9261402410896
 30
0.0
 11
109.3332577934035
 21
266.9261402410896
 31
0.0
  0
LINE
  5
1A41
330
19D8
100
AcDbEntity
  8
0
 62
     0
100
AcDbLine
 10
112.2027446181239
 20
275.193589267407
 30
0.0
 11
112.2027446181239
 21
275.193589267407
 31
0.0
  0
LINE
  5
1A42
330
19D8
100
AcDbEntity
  8
0
 62
     0
100
AcDbLine
 10
115.1887178322049
 20
272.4574489265636
 30
0.0
 11
115.1887178322049
 21
272.4574489265636
 31
0.0
  0
LINE
  5
1A43
330
19D8
100
AcDbEntity
  8
0
 62
     0
100
AcDbLine
 10
115.7416758348125
 20
271.9507562708519
 30
0.0
 11
115.7416758348125
 21
271.9507562708519
 31
0.0
  0
LINE
  5
1A44
330
19D8
100
AcDbEntity
  8
0
 62
     0
100
AcDbLine
 10
118.3516376071203
 20
269.5591669358924
 30
0.0
 11
118.3516376071203
 21
269.5591669358924
 31
0.0
  0
LINE
  5
1A45
330
19D8
100
AcDbEntity
  8
0
 62
     0
100
AcDbLine
 10
121.3376108212013
 20
266.823026595049
 30
0.0
 11
121.3376108212013
 21
266.823026595049
 31
0.0
  0
LINE
  5
1A46
330
19D8
100
AcDbEntity
  8
0
 62
     0
100
AcDbLine
 10
94.28247138005071
 20
258.9239465106407
 30
0.0
 11
94.28247138005071
 21
258.9239465106407
 31
0.0
  0
LINE
  5
1A47
330
19D8
100
AcDbEntity
  8
0
 62
     0
100
AcDbLine
 10
94.83542938265831
 20
258.417253854929
 30
0.0
 11
94.83542938265831
 21
258.417253854929
 31
0.0
  0
LINE
  5
1A48
330
19D8
100
AcDbEntity
  8
0
 62
     0
100
AcDbLine
 10
97.44539115496614
 20
256.0256645199695
 30
0.0
 11
97.44539115496614
 21
256.0256645199695
 31
0.0
  0
LINE
  5
1A49
330
19D8
100
AcDbEntity
  8
0
 62
     0
100
AcDbLine
 10
100.4313643690471
 20
253.2895241791261
 30
0.0
 11
100.4313643690471
 21
253.2895241791261
 31
0.0
  0
LINE
  5
1A4A
330
19D8
100
AcDbEntity
  8
0
 62
     0
100
AcDbLine
 10
100.9843223716547
 20
252.7828315234143
 30
0.0
 11
100.9843223716547
 21
252.7828315234143
 31
0.0
  0
LINE
  5
1A4B
330
19D8
100
AcDbEntity
  8
0
 62
     0
100
AcDbLine
 10
106.5802573580435
 20
247.6551018476115
 30
0.0
 11
106.5802573580435
 21
247.6551018476115
 31
0.0
  0
LINE
  5
1A4C
330
19D8
100
AcDbEntity
  8
0
 62
     0
100
AcDbLine
 10
107.1332153606511
 20
247.1484091918998
 30
0.0
 11
107.1332153606511
 21
247.1484091918998
 31
0.0
  0
LINE
  5
1A4D
330
19D8
100
AcDbEntity
  8
0
 62
     0
100
AcDbLine
 10
109.743177132959
 20
244.7568198569404
 30
0.0
 11
109.743177132959
 21
244.7568198569404
 31
0.0
  0
LINE
  5
1A4E
330
19D8
100
AcDbEntity
  8
0
 62
     0
100
AcDbLine
 10
112.72915034704
 20
242.0206795160969
 30
0.0
 11
112.72915034704
 21
242.0206795160969
 31
0.0
  0
LINE
  5
1A4F
330
19D8
100
AcDbEntity
  8
0
 62
     0
100
AcDbLine
 10
113.2821083496476
 20
241.5139868603852
 30
0.0
 11
113.2821083496476
 21
241.5139868603852
 31
0.0
  0
LINE
  5
1A50
330
19D8
100
AcDbEntity
  8
0
 62
     0
100
AcDbLine
 10
115.8920701219554
 20
239.1223975254258
 30
0.0
 11
115.8920701219554
 21
239.1223975254258
 31
0.0
  0
LINE
  5
1A51
330
19D8
100
AcDbEntity
  8
0
 62
     0
100
AcDbLine
 10
94.57590433024572
 20
247.7582154936522
 30
0.0
 11
94.57590433024572
 21
247.7582154936522
 31
0.0
  0
LINE
  5
1A52
330
19D8
100
AcDbEntity
  8
0
 62
     0
100
AcDbLine
 10
97.56187754432673
 20
245.0220751528088
 30
0.0
 11
97.56187754432673
 21
245.0220751528088
 31
0.0
  0
LINE
  5
1A53
330
19D8
100
AcDbEntity
  8
0
 62
     0
100
AcDbLine
 10
98.11483554693431
 20
244.515382497097
 30
0.0
 11
98.11483554693431
 21
244.515382497097
 31
0.0
  0
LINE
  5
1A54
330
19D8
100
AcDbEntity
  8
0
 62
     0
100
AcDbLine
 10
100.7247973192421
 20
242.1237931621376
 30
0.0
 11
100.7247973192421
 21
242.1237931621376
 31
0.0
  0
LINE
  5
1A55
330
19D8
100
AcDbEntity
  8
0
 62
     0
100
AcDbLine
 10
103.7107705333231
 20
239.3876528212941
 30
0.0
 11
103.7107705333231
 21
239.3876528212941
 31
0.0
  0
LINE
  5
1A56
330
19D8
100
AcDbEntity
  8
0
 62
     0
100
AcDbLine
 10
104.2637285359307
 20
238.8809601655824
 30
0.0
 11
104.2637285359307
 21
238.8809601655824
 31
0.0
  0
ENDBLK
  5
1A58
330
19D8
100
AcDbEntity
  8
0
100
AcDbBlockEnd
  0
BLOCK
  5
1B48
330
1A59
100
AcDbEntity
  8
0
100
AcDbBlockBegin
  2
A$C1B021DEF
 70
     0
 10
0.0
 20
0.0
 30
0.0
  3
A$C1B021DEF
  1

  0
LINE
  5
1A5A
330
1A59
100
AcDbEntity
  8
0
100
AcDbLine
 10
20.23899337167791
 20
120.846186423651
 30
0.0
 11
-19.40948074180574
 21
120.6347195258454
 31
0.0
  0
LINE
  5
1A5B
330
1A59
100
AcDbEntity
  8
ASSE
100
AcDbLine
 10
82.95184730244159
 20
1.224264949822099
 30
0.0
 11
-101.7739343057971
 21
0.239021788393984
 31
0.0
  0
ARC
  5
1A5C
330
1A59
100
AcDbEntity
  8
0
100
AcDbCircle
 10
0.0
 20
0.0
 30
0.0
 40
90.0
100
AcDbArc
 50
43.06548357823177
 51
314.6691401962816
  0
LINE
  5
1A5D
330
1A59
100
AcDbEntity
  8
0
100
AcDbLine
 10
193.2469994737287
 20
-90.63787142228875
 30
0.0
 11
-206.7473113084377
 21
-92.77125884594624
 31
0.0
  0
LINE
  5
1A5E
330
1A59
100
AcDbEntity
  8
0
100
AcDbLine
 10
-196.1470201332342
 20
107.2881229272607
 30
0.0
 11
192.1803057619006
 21
109.3592839687944
 31
0.0
  0
CIRCLE
  5
1A5F
330
1A59
100
AcDbEntity
  8
0
100
AcDbCircle
 10
0.0
 20
0.0
 30
0.0
 40
25.0
  0
LINE
  5
1A60
330
1A59
100
AcDbEntity
  8
ASSE
100
AcDbLine
 10
60.60843362105675
 20
309.101169131226
 30
0.0
 11
-70.4039368430374
 21
308.4024088339975
 31
0.0
  0
CIRCLE
  5
1A61
330
1A59
100
AcDbEntity
  8
0
100
AcDbCircle
 10
-0.2705684541604114
 20
308.7240331170761
 30
0.0
 40
44.0
  0
CIRCLE
  5
1A62
330
1A59
100
AcDbEntity
  8
0
100
AcDbCircle
 10
-0.2705684541604114
 20
308.7240331170761
 30
0.0
 40
34.0
  0
LINE
  5
1A63
330
1A59
100
AcDbEntity
  8
0
100
AcDbLine
 10
195.8874966916719
 20
354.8489236909227
 30
0.0
 11
-214.1066718600489
 21
352.6622015816738
 31
0.0
  0
LINE
  5
1A64
330
1A59
100
AcDbEntity
  8
ASSE
100
AcDbLine
 10
215.5982456912325
 20
339.2551071776716
 30
0.0
 11
-301.5558383993755
 21
336.496842899026
 31
0.0
1001
ACAD
1000
ASC_BOUNDS
1002
{
1070
    19
1005
1ABC
1002
}
  0
LINE
  5
1A65
330
1A59
100
AcDbEntity
  8
0
100
AcDbLine
 10
-19.40948074180574
 20
120.6347195258454
 30
0.0
 11
-20.13634556184365
 21
256.9164794624557
 31
0.0
  0
LINE
  5
1A66
330
1A59
100
AcDbEntity
  8
ASSE
100
AcDbLine
 10
-0.854952843382307
 20
358.802260641507
 30
0.0
 11
0.4975677147838269
 21
105.2146925875213
 31
0.0
  0
LINE
  5
1A67
330
1A59
100
AcDbEntity
  8
0
100
AcDbLine
 10
-19.34515017435888
 20
108.5732155052228
 30
0.0
 11
-19.44168367718225
 21
126.6725309418116
 31
0.0
  0
CIRCLE
  5
1A68
330
1A59
100
AcDbEntity
  8
0
100
AcDbCircle
 10
-313.2759892555744
 20
183.2240496940148
 30
0.0
 40
140.0
1001
ACAD
1000
ASC_BOUNDS
1002
{
1070
    19
1005
1ABC
1002
}
  0
ARC
  5
1A69
330
1A59
100
AcDbEntity
  8
0
100
AcDbCircle
 10
-72.2516608223807
 20
138.1517922209691
 30
0.0
 40
25.11337410049601
100
AcDbArc
 50
259.3439829561773
 51
349.3439829561735
  0
LINE
  5
1A6A
330
1A59
100
AcDbEntity
  8
ASSE
100
AcDbLine
 10
-72.79049826100504
 20
169.5654608961795
 30
0.0
 11
-72.41855006696209
 21
99.82793461610254
 31
0.0
  0
CIRCLE
  5
1A6B
330
1A59
100
AcDbEntity
  8
VITE
100
AcDbCircle
 10
-72.42817703807418
 20
137.9263052350156
 30
0.0
 40
17.0
  0
LWPOLYLINE
  5
1A6C
330
1A59
100
AcDbEntity
  8
VITE
100
AcDbPolyline
 90
        6
 70
     1
 43
0.0
 10
-55.48076658147443
 20
147.831789178208
 10
-72.53287254135717
 20
157.5559351903903
 10
-89.48028299795783
 20
147.650451247197
 10
-89.37558749467484
 20
128.0208212918232
 10
-72.32348153479074
 20
118.2966752796414
 10
-55.37607107819031
 20
128.2021592228343
  0
LINE
  5
1A6D
330
1A59
100
AcDbEntity
  8
0
100
AcDbLine
 10
-76.89543159849927
 20
113.4714974153894
 30
0.0
 11
-182.8075464472347
 21
133.3996055537232
 31
0.0
  0
LINE
  5
1A6E
330
1A59
100
AcDbEntity
  8
ASSE
100
AcDbLine
 10
-285.209137997934
 20
332.7983393439504
 30
0.0
 11
-340.6120509733407
 21
38.3479258238458
 31
0.0
  0
LINE
  5
1A6F
330
1A59
100
AcDbEntity
  8
0
100
AcDbLine
 10
-31.54541874366783
 20
133.5085004120637
 30
0.0
 11
-31.41208202968915
 21
108.5088559881787
 31
0.0
  0
LINE
  5
1A70
330
1A59
100
AcDbEntity
  8
0
100
AcDbLine
 10
-47.42543875655906
 20
138.2211117974166
 30
0.0
 11
-47.26543469978492
 21
108.221538488754
 31
0.0
  0
LINE
  5
1A71
330
1A59
100
AcDbEntity
  8
0
100
AcDbLine
 39
0.1234
 10
-76.61877799239403
 20
-224.0025418969817
 30
0.0
 11
-206.5711336261003
 21
-224.0025418969817
 31
0.0
  0
LINE
  5
1A72
330
1A59
100
AcDbEntity
  8
0
100
AcDbLine
 39
0.1234
 10
-76.54732294933933
 20
-223.9810359978147
 30
0.0
 11
-76.54732294933933
 21
-93.95019700982368
 31
0.0
  0
LINE
  5
1A73
330
1A59
100
AcDbEntity
  8
ASSE
100
AcDbLine
 10
-417.3523617008024
 20
99.02321318339046
 30
0.0
 11
-464.22490827063
 21
57.24848578308774
 31
0.0
  0
LINE
  5
1A74
330
1A59
100
AcDbEntity
  8
ASSE
100
AcDbLine
 10
-418.6321377460408
 20
56.42114969071281
 30
0.0
 11
-459.8202832145743
 21
102.6355330450051
 31
0.0
  0
CIRCLE
  5
1A75
330
1A59
100
AcDbEntity
  8
0
100
AcDbCircle
 10
-439.2276592322907
 20
79.52578460837322
 30
0.0
 40
14.5
  0
LINE
  5
1A76
330
1A59
100
AcDbEntity
  8
0
100
AcDbLine
 10
-448.9568626164293
 20
93.77048294547604
 30
0.0
 11
-450.8990951912312
 21
92.10083249541776
 31
0.0
  0
ARC
  5
1A77
330
1A59
100
AcDbEntity
  8
0
100
AcDbCircle
 10
-439.22318078693
 20
79.52494195743065
 30
0.0
 40
17.08566650733891
100
AcDbArc
 50
131.7087292011559
 51
311.7087292011629
  0
CIRCLE
  5
1A78
330
1A59
100
AcDbEntity
  8
0
100
AcDbCircle
 10
-439.2276592322907
 20
79.52578460837322
 30
0.0
 40
11.0
  0
CIRCLE
  5
1A79
330
1A59
100
AcDbEntity
  8
0
100
AcDbCircle
 10
-439.2276592322907
 20
79.52578460837322
 30
0.0
 40
13.0
  0
LWPOLYLINE
  5
1A7A
330
1A59
100
AcDbEntity
  8
VITE
100
AcDbPolyline
 90
        6
 70
     1
 43
0.0
 10
-432.1410593728512
 20
82.01255671106082
 10
-437.8350326583336
 20
86.90254664536041
 10
-444.9168748084282
 20
84.41641609881116
 10
-446.3047436730398
 20
77.04029561796369
 10
-440.610770387557
 20
72.15030568366455
 10
-433.5289282374624
 20
74.6364362302138
  0
CIRCLE
  5
1A7B
330
1A59
100
AcDbEntity
  8
VITE
100
AcDbCircle
 10
-439.222901522945
 20
79.52642616451203
 30
0.0
 40
6.5
  0
CIRCLE
  5
1A7C
330
1A59
100
AcDbEntity
  8
VITE
100
AcDbCircle
 10
-439.222901522945
 20
79.52642616451203
 30
0.0
 40
6.5
  0
CIRCLE
  5
1A7D
330
1A59
100
AcDbEntity
  8
VITE
100
AcDbCircle
 10
-439.222901522945
 20
79.52642616451203
 30
0.0
 40
5.75
  0
LINE
  5
1A7E
330
1A59
100
AcDbEntity
  8
ASSE
100
AcDbLine
 10
-431.8522387716504
 20
78.13958421004191
 30
0.0
 11
-446.5935642742395
 21
80.91326811898307
 31
0.0
  0
LINE
  5
1A7F
330
1A59
100
AcDbEntity
  8
ASSE
100
AcDbLine
 10
-440.6097434774162
 20
72.15576341321775
 30
0.0
 11
-437.8360595684744
 21
86.89708891580721
 31
0.0
  0
CIRCLE
  5
1A80
330
1A59
100
AcDbEntity
  8
VITE
100
AcDbCircle
 10
-439.222901522945
 20
79.52642616451203
 30
0.0
 40
4.978571428571428
  0
LINE
  5
1A81
330
1A59
100
AcDbEntity
  8
0
100
AcDbLine
 10
-427.8749425723119
 20
66.96016782009974
 30
0.0
 11
-411.7738061115906
 21
83.72158703806553
 31
0.0
  0
LINE
  5
1A82
330
1A59
100
AcDbEntity
  8
0
100
AcDbLine
 10
-429.4894989574308
 20
65.27940096938528
 30
0.0
 11
-428.8374262366296
 21
65.9582141861174
 31
0.0
  0
LINE
  5
1A83
330
1A59
100
AcDbEntity
  8
0
100
AcDbLine
 10
-448.9568626164293
 20
93.77048294547604
 30
0.0
 11
-430.2741859107961
 21
106.5359673120319
 31
0.0
  0
LINE
  5
1A84
330
1A59
100
AcDbEntity
  8
0
100
AcDbLine
 10
-207.0245102128991
 20
-93.15685389377359
 30
0.0
 11
-207.0245102128991
 21
-224.2611012271673
 31
0.0
  0
CIRCLE
  5
1A85
330
1A59
100
AcDbEntity
  8
0
100
AcDbCircle
 10
-160.7707527106574
 20
91.28011850273834
 30
0.0
 40
14.5
  0
LINE
  5
1A86
330
1A59
100
AcDbEntity
  8
ASSE
100
AcDbLine
 10
-153.8968826399798
 20
-73.48910849542062
 30
0.0
 11
-215.8010306811314
 21
-73.81927701867971
 31
0.0
  0
CIRCLE
  5
1A87
330
1A59
100
AcDbEntity
  8
0
100
AcDbCircle
 10
-184.848960118042
 20
-73.65419277549063
 30
0.0
 40
13.0
  0
CIRCLE
  5
1A88
330
1A59
100
AcDbEntity
  8
0
100
AcDbCircle
 10
-184.848960118042
 20
-73.65419277549063
 30
0.0
 40
14.5
  0
LINE
  5
1A89
330
1A59
100
AcDbEntity
  8
ASSE
100
AcDbLine
 10
-129.8186752325957
 20
91.44520278280925
 30
0.0
 11
-191.7228232737473
 21
91.11503425954925
 31
0.0
  0
LINE
  5
1A8A
330
1A59
100
AcDbEntity
  8
0
100
AcDbLine
 10
-206.7473113084377
 20
-92.77125884594624
 30
0.0
 11
-206.7473113084377
 21
92.49441734002539
 31
0.0
  0
LINE
  5
1A8B
330
1A59
100
AcDbEntity
  8
ASSE
100
AcDbLine
 10
-184.8044101923301
 20
-81.15255156803868
 30
0.0
 11
-184.8844122207172
 21
-66.15276491370787
 31
0.0
  0
LINE
  5
1A8C
330
1A59
100
AcDbEntity
  8
ASSE
100
AcDbLine
 10
-185.0052330483483
 20
-44.35417799215111
 30
0.0
 11
-184.6703624223844
 21
-107.1399353975848
 31
0.0
  0
LWPOLYLINE
  5
1A8D
330
1A59
100
AcDbEntity
  8
VITE
100
AcDbPolyline
 90
        6
 70
     1
 43
0.0
 10
-178.3645189731176
 20
-69.86526732141737
 10
-184.8844418401318
 20
-66.14721149323031
 10
-191.3643340735377
 20
-69.93460241268621
 10
-191.3243034399295
 20
-77.44004916032963
 10
-184.8043805729153
 20
-81.15810498851624
 10
-178.3244883395093
 20
-77.37071406906034
  0
CIRCLE
  5
1A8E
330
1A59
100
AcDbEntity
  8
VITE
100
AcDbCircle
 10
-184.8444112065233
 20
-73.65265824087328
 30
0.0
 40
4.978571428571428
  0
CIRCLE
  5
1A8F
330
1A59
100
AcDbEntity
  8
VITE
100
AcDbCircle
 10
-184.8444112065233
 20
-73.65265824087328
 30
0.0
 40
5.75
  0
CIRCLE
  5
1A90
330
1A59
100
AcDbEntity
  8
VITE
100
AcDbCircle
 10
-184.8444112065233
 20
-73.65265824087328
 30
0.0
 40
6.5
  0
CIRCLE
  5
1A91
330
1A59
100
AcDbEntity
  8
VITE
100
AcDbCircle
 10
-184.8444112065233
 20
-73.65265824087328
 30
0.0
 40
6.5
  0
CIRCLE
  5
1A92
330
1A59
100
AcDbEntity
  8
0
100
AcDbCircle
 10
-184.848960118042
 20
-73.65419277549063
 30
0.0
 40
11.0
  0
LINE
  5
1A93
330
1A59
100
AcDbEntity
  8
ASSE
100
AcDbLine
 10
-177.3445178793581
 20
-73.6126572266794
 30
0.0
 11
-192.3443045336892
 21
-73.6926592550667
 31
0.0
  0
LINE
  5
1A94
330
1A59
100
AcDbEntity
  8
ASSE
100
AcDbLine
 10
-0.3494460453991905
 20
99.77805120436414
 30
0.0
 11
0.7119329582549199
 21
-99.22263584268058
 31
0.0
  0
CIRCLE
  5
1A95
330
1A59
100
AcDbEntity
  8
0
100
AcDbCircle
 10
0.0
 20
0.0
 30
0.0
 40
15.0
  0
LINE
  5
1A96
330
1A59
100
AcDbEntity
  8
0
100
AcDbLine
 10
-125.3667844597323
 20
-19.61957914442064
 30
0.0
 11
-125.4534192064454
 21
-3.376207023154165
 31
0.0
  0
LINE
  5
1A97
330
1A59
100
AcDbEntity
  8
0
100
AcDbLine
 10
-164.3221756936211
 20
-19.97858372986638
 30
0.0
 11
-164.4093988190611
 21
-3.624894963440965
 31
0.0
  0
LINE
  5
1A98
330
1A59
100
AcDbEntity
  8
0
100
AcDbLine
 10
-108.1154767065402
 20
11.75747492912615
 30
0.0
 11
-107.9478146923311
 21
-19.6779085714079
 31
0.0
  0
LINE
  5
1A99
330
1A59
100
AcDbEntity
  8
0
100
AcDbLine
 10
-136.736118935963
 20
-19.8314522708215
 30
0.0
 11
-136.3642742493951
 21
-89.54957166736221
 31
0.0
  0
LINE
  5
1A9A
330
1A59
100
AcDbEntity
  8
0
100
AcDbLine
 10
-116.3645587102867
 20
-89.44290229617946
 30
0.0
 11
-116.7364033968554
 21
-19.72478289963783
 31
0.0
  0
LINE
  5
1A9B
330
1A59
100
AcDbEntity
  8
0
100
AcDbLine
 10
-136.3642742493951
 20
-89.54957166736221
 30
0.0
 11
-116.3645587102867
 21
-89.44290229617946
 31
0.0
  0
LINE
  5
1A9C
330
1A59
100
AcDbEntity
  8
0
100
AcDbLine
 10
-107.9533433617282
 20
-19.67793805881183
 30
0.0
 11
-164.3221756936211
 21
-19.97858372986638
 31
0.0
  0
LINE
  5
1A9D
330
1A59
100
AcDbEntity
  8
0
100
AcDbLine
 10
-47.26543469978492
 20
108.221538488754
 30
0.0
 11
-97.26472354755538
 21
107.9548650607971
 31
0.0
  0
LINE
  5
1A9E
330
1A59
100
AcDbEntity
  8
0
100
AcDbLine
 10
-116.9040654110633
 20
11.7106006008953
 30
0.0
 11
-117.3140905917455
 21
88.58727931916883
 31
0.0
  0
LINE
  5
1A9F
330
1A59
100
AcDbEntity
  8
0
100
AcDbLine
 10
-137.3138061308536
 20
88.48060994798606
 30
0.0
 11
-136.9037809501719
 21
11.60393122971345
 31
0.0
  0
LINE
  5
1AA0
330
1A59
100
AcDbEntity
  8
ASSE
100
AcDbLine
 10
-160.9270256409641
 20
120.5801332860778
 30
0.0
 11
-160.5921550149998
 21
57.79437588064411
 31
0.0
  0
LINE
  5
1AA1
330
1A59
100
AcDbEntity
  8
0
100
AcDbLine
 10
-142.1376253431447
 20
11.57601628816428
 30
0.0
 11
-115.659996602754
 21
11.71723589714474
 31
0.0
  0
LINE
  5
1AA2
330
1A59
100
AcDbEntity
  8
0
100
AcDbLine
 10
-125.4534192064454
 20
-3.376207023154165
 30
0.0
 11
-164.4095139092812
 21
-3.583981084619153
 31
0.0
  0
LINE
  5
1AA3
330
1A59
100
AcDbEntity
  8
0
100
AcDbLine
 10
-142.1710544867178
 20
11.56016660551358
 30
0.0
 11
-142.0909173926663
 21
-3.464943858741207
 31
0.0
  0
CIRCLE
  5
1AA4
330
1A59
100
AcDbEntity
  8
0
100
AcDbCircle
 10
-134.3853361524359
 20
4.115456996589728
 30
0.0
 40
5.306069902824674
  0
LINE
  5
1AA5
330
1A59
100
AcDbEntity
  8
0
100
AcDbLine
 10
-117.2150826131408
 20
11.70894177683385
 30
0.0
 11
-108.1210053759371
 21
11.75744544172266
 31
0.0
  0
LINE
  5
1AA6
330
1A59
100
AcDbEntity
  8
0
100
AcDbLine
 10
-117.3140905917455
 20
88.58727931916883
 30
0.0
 11
-137.3138061308536
 21
88.48060994798606
 31
0.0
  0
LINE
  5
1AA7
330
1A59
100
AcDbEntity
  8
ASSE
100
AcDbLine
 10
-160.7262027849456
 20
83.78175971019027
 30
0.0
 11
-160.8062048133326
 21
98.78154636452201
 31
0.0
  0
CIRCLE
  5
1AA8
330
1A59
100
AcDbEntity
  8
0
100
AcDbCircle
 10
-160.7707527106574
 20
91.28011850273834
 30
0.0
 40
13.0
  0
CIRCLE
  5
1AA9
330
1A59
100
AcDbEntity
  8
0
100
AcDbCircle
 10
-160.7707527106574
 20
91.28011850273834
 30
0.0
 40
11.0
  0
CIRCLE
  5
1AAA
330
1A59
100
AcDbEntity
  8
VITE
100
AcDbCircle
 10
-160.766203799139
 20
91.28165303735613
 30
0.0
 40
6.5
  0
CIRCLE
  5
1AAB
330
1A59
100
AcDbEntity
  8
VITE
100
AcDbCircle
 10
-160.766203799139
 20
91.28165303735613
 30
0.0
 40
6.5
  0
CIRCLE
  5
1AAC
330
1A59
100
AcDbEntity
  8
VITE
100
AcDbCircle
 10
-160.766203799139
 20
91.28165303735613
 30
0.0
 40
5.75
  0
LWPOLYLINE
  5
1AAD
330
1A59
100
AcDbEntity
  8
VITE
100
AcDbPolyline
 90
        6
 70
     1
 43
0.0
 10
-154.286311565733
 20
95.0690439568125
 10
-160.8062344327475
 20
98.78709978499955
 10
-167.2861266661537
 20
94.9997088655432
 10
-167.2460960325454
 20
87.49426211789979
 10
-160.7261731655305
 20
83.77620628971271
 10
-154.2462809321248
 20
87.56359720916908
  0
CIRCLE
  5
1AAE
330
1A59
100
AcDbEntity
  8
VITE
100
AcDbCircle
 10
-160.766203799139
 20
91.28165303735613
 30
0.0
 40
4.978571428571428
  0
LINE
  5
1AAF
330
1A59
100
AcDbEntity
  8
ASSE
100
AcDbLine
 10
-153.2663104719734
 20
91.32165405154955
 30
0.0
 11
-168.2660971263049
 21
91.24165202316271
 31
0.0
  0
LINE
  5
1AB0
330
1A59
100
AcDbEntity
  8
0
100
AcDbLine
 10
-97.26472354755538
 20
107.9548650607971
 30
0.0
 11
-97.29213494132887
 21
113.0942979824995
 31
0.0
  0
LINE
  5
1AB1
330
1A59
100
AcDbEntity
  8
0
100
AcDbLine
 10
-97.29213494132887
 20
113.0942979824995
 30
0.0
 11
-97.31463098924974
 21
117.3121400320729
 31
0.0
  0
LINE
  5
1AB2
330
1A59
100
AcDbEntity
  8
0
100
AcDbLine
 10
-31.41208202968915
 20
108.5088559881787
 30
0.0
 11
-19.34515017435888
 21
108.5732155052228
 31
0.0
  0
LINE
  5
1AB3
330
1A59
100
AcDbEntity
  8
ASSE
100
AcDbLine
 10
-209.0996311882134
 20
163.6225363828221
 30
0.0
 11
-35.97899415236111
 21
131.0486728474261
 31
0.0
  0
LINE
  5
1AB4
330
1A59
100
AcDbEntity
  8
0
100
AcDbLine
 10
-213.946667803275
 20
322.6626282730113
 30
0.0
 11
-41.60964147889444
 21
323.5817954578442
 31
0.0
  0
CIRCLE
  5
1AB5
330
1A59
100
AcDbEntity
  8
0
100
AcDbCircle
 10
-313.2759892555744
 20
183.2240496940148
 30
0.0
 40
10.0
  0
CIRCLE
  5
1AB6
330
1A59
100
AcDbEntity
  8
0
100
AcDbCircle
 10
-313.2759892555744
 20
183.2240496940148
 30
0.0
 40
18.0
  0
CIRCLE
  5
1AB7
330
1A59
100
AcDbEntity
  8
0
100
AcDbCircle
 10
-313.2759892555744
 20
183.2240496940148
 30
0.0
 40
32.5
  0
LINE
  5
1AB8
330
1A59
100
AcDbEntity
  8
0
100
AcDbLine
 10
-213.9824462619363
 20
337.8339042521866
 30
0.0
 11
-213.8891105621517
 21
320.334153155467
 31
0.0
  0
LINE
  5
1AB9
330
1A59
100
AcDbEntity
  8
0
100
AcDbLine
 10
-233.8888261012596
 20
320.2274837842842
 30
0.0
 11
-233.9821618010444
 21
337.7272348810038
 31
0.0
  0
LINE
  5
1ABA
330
1A59
100
AcDbEntity
  8
0
100
AcDbLine
 10
-263.5888021516062
 20
337.5693265496147
 30
0.0
 11
-263.4604553331139
 21
313.5052505011163
 31
0.0
1001
ACAD
1000
ASC_BOUNDS
1002
{
1070
    19
1005
1ABC
1002
}
  0
LINE
  5
1ABB
330
1A59
100
AcDbEntity
  8
0
100
AcDbLine
 10
-240.6311419184829
 20
381.5674647753663
 30
0.0
 11
-240.208858236708
 21
302.3924080683519
 31
0.0
1001
ACAD
1000
ASC_BOUNDS
1002
{
1070
    19
1005
1ABC
1002
}
  0
INSERT
  5
1ABC
330
1A59
100
AcDbEntity
  8
0
100
AcDbBlockReference
  2
*X9
 10
-2277.621806075696
 20
3057.632150522427
 30
0.0
 50
270.3055866873954
1001
ACAD
1000
HATCH
1002
{
1070
    19
1000
AR-HBONE
1040
1.0
1040
14.14250043499941
1000
ASC_BOUNDS
1070
     2
1070
     1
1070
     4
1005
1ABB
1005
1A64
1005
1ABA
1005
1A68
1070
     1
1070
     7
1005
1ABB
1005
1AC0
1005
1AC3
1005
1AC4
1005
1AC1
1005
1ABA
1005
1A64
1000
ASC_SEEDPOINT
1011
-1756.919317489795
1021
-4371.038275953746
1031
0.0
1002
}
  0
LINE
  5
1ABD
330
1A59
100
AcDbEntity
  8
0
100
AcDbLine
 10
-213.8891105621517
 20
320.334153155467
 30
0.0
 11
-233.8888261012596
 21
320.2274837842842
 31
0.0
  0
LINE
  5
1ABE
330
1A59
100
AcDbEntity
  8
0
100
AcDbLine
 10
-238.4311450367597
 20
301.4590954162973
 30
0.0
 11
-233.7685229985082
 21
320.287104836752
 31
0.0
  0
LINE
  5
1ABF
330
1A59
100
AcDbEntity
  8
0
100
AcDbLine
 10
-214.0757819617217
 20
355.3336553489071
 30
0.0
 11
-234.0754975008299
 21
355.2269859777243
 31
0.0
  0
LINE
  5
1AC0
330
1A59
100
AcDbEntity
  8
0
100
AcDbLine
 10
-240.8238018982336
 20
381.6913705125143
 30
0.0
 11
-233.9545652773631
 21
355.1686515645843
 31
0.0
1001
ACAD
1000
ASC_BOUNDS
1002
{
1070
    19
1005
1ABC
1002
}
  0
LINE
  5
1AC1
330
1A59
100
AcDbEntity
  8
0
100
AcDbLine
 10
-263.5888021516062
 20
337.5693265496147
 30
0.0
 11
-263.7968074254127
 21
376.5687718508762
 31
0.0
1001
ACAD
1000
ASC_BOUNDS
1002
{
1070
    19
1005
1ABC
1002
}
  0
LINE
  5
1AC2
330
1A59
100
AcDbEntity
  8
0
100
AcDbLine
 10
-234.0754975008299
 20
355.2269859777243
 30
0.0
 11
-233.9821618010444
 21
337.7272348810038
 31
0.0
  0
LINE
  5
1AC3
330
1A59
100
AcDbEntity
  8
0
100
AcDbLine
 10
-258.8235458834313
 20
381.5953680784496
 30
0.0
 11
-240.8238018982336
 21
381.6913705125143
 31
0.0
1001
ACAD
1000
ASC_BOUNDS
1002
{
1070
    19
1005
1ABC
1002
}
  0
ARC
  5
1AC4
330
1A59
100
AcDbEntity
  8
0
100
AcDbCircle
 10
-258.7968785406356
 20
376.5954391936721
 30
0.0
 40
5.0
100
AcDbArc
 50
90.30558668739542
 51
180.3055866873954
1001
ACAD
1000
ASC_BOUNDS
1002
{
1070
    19
1005
1ABC
1002
}
  0
LINE
  5
1AC5
330
1A59
100
AcDbEntity
  8
0
100
AcDbLine
 10
-213.9824462619363
 20
337.8339042521866
 30
0.0
 11
-214.0757819617217
 21
355.3336553489071
 31
0.0
  0
LINE
  5
1AC6
330
1A59
100
AcDbEntity
  8
0
100
AcDbLine
 10
-20.1363455618432
 20
256.9164794624521
 30
0.0
 11
-20.20995212771481
 21
270.7171643537149
 31
0.0
  0
LINE
  5
1AC7
330
1A59
100
AcDbEntity
  8
0
100
AcDbLine
 10
-31.54541881544787
 20
133.5085138703971
 30
0.0
 11
-32.23876972813696
 21
263.5066648746015
 31
0.0
  0
LINE
  5
1AC8
330
1A59
100
AcDbEntity
  8
0
100
AcDbLine
 10
-67.7378630540968
 20
162.1413181869975
 30
0.0
 11
-173.649977902832
 21
182.0694263253317
 31
0.0
  0
ARC
  5
1AC9
330
1A59
100
AcDbEntity
  8
0
100
AcDbCircle
 10
-72.38163383021742
 20
137.4610233814173
 30
0.0
 40
25.11337410049601
100
AcDbArc
 50
349.3439829561735
 51
79.34398295617732
  0
LINE
  5
1ACA
330
1A59
100
AcDbEntity
  8
0
100
AcDbLine
 10
-45.53078240090758
 20
293.7433282791535
 30
0.0
 11
-45.69078645768172
 21
323.7429015878161
 31
0.0
  0
LINE
  5
1ACB
330
1A59
100
AcDbEntity
  8
0
100
AcDbLine
 10
-32.24008070010859
 20
263.7524623910386
 30
0.0
 11
-20.17314884477924
 21
263.8168219080817
 31
0.0
  0
LINE
  5
1ACC
330
1A59
100
AcDbEntity
  8
0
100
AcDbLine
 10
-41.66609469892455
 20
293.7639407626753
 30
0.0
 11
-45.53078240090758
 21
293.7433282791535
 31
0.0
  0
LINE
  5
1ACD
330
1A59
100
AcDbEntity
  8
0
100
AcDbLine
 10
32.30322842233477
 20
108.8345921310901
 30
0.0
 11
32.09160956339906
 21
148.5115578288778
 31
0.0
  0
LINE
  5
1ACE
330
1A59
100
AcDbEntity
  8
0
100
AcDbLine
 10
19.51212855163999
 20
257.1279463602618
 30
0.0
 11
20.23899337167791
 21
120.846186423651
 31
0.0
  0
LINE
  5
1ACF
330
1A59
100
AcDbEntity
  8
COSTRUZIONE
 62
     1
100
AcDbLine
 39
0.1234
 10
263.4123938051021
 20
8.72673158345151
 30
0.0
 11
244.6612226246955
 21
-21.52969930163568
 31
0.0
  0
LINE
  5
1AD0
330
1A59
100
AcDbEntity
  8
0
100
AcDbLine
 39
0.1234
 10
282.4400579282567
 20
24.00922237795112
 30
0.0
 11
275.207732324666
 21
20.12936879227686
 31
0.0
  0
ARC
  5
1AD1
330
1A59
100
AcDbEntity
  8
COSTRUZIONE
100
AcDbCircle
 10
229.5573783105217
 20
-60.90602730187055
 30
0.0
 40
25.09637090367701
100
AcDbArc
 50
94.61584905883944
 51
20.45797883069474
  0
LINE
  5
1AD2
330
1A59
100
AcDbEntity
  8
0
100
AcDbLine
 10
229.8503094083753
 20
-86.0767485089857
 30
0.0
 11
193.4827842451344
 21
-86.0767485089857
 31
0.0
  0
LINE
  5
1AD3
330
1A59
100
AcDbEntity
  8
0
100
AcDbLine
 10
227.5377566835217
 20
-35.89105256635105
 30
0.0
 11
193.4827842451344
 21
-35.89105256635105
 31
0.0
  0
LINE
  5
1AD4
330
1A59
100
AcDbEntity
  8
0
100
AcDbLine
 10
192.1803057619006
 20
109.3592839687944
 30
0.0
 11
193.2469994737287
 21
-90.63787142228875
 31
0.0
  0
LINE
  5
1AD5
330
1A59
100
AcDbEntity
  8
0
100
AcDbLine
 10
172.4349478058661
 20
47.39495950502623
 30
0.0
 11
173.0911211003833
 21
-75.63266397466623
 31
0.0
  0
CIRCLE
  5
1AD6
330
1A59
100
AcDbEntity
  8
0
100
AcDbCircle
 10
118.0014865101238
 20
-8.473142553812522
 30
0.0
 40
10.77928353839161
  0
LINE
  5
1AD7
330
1A59
100
AcDbEntity
  8
0
100
AcDbLine
 10
104.309666079836
 20
-5.95494790769635
 30
0.0
 11
92.24618101387296
 21
38.21462176731166
 31
0.0
  0
LINE
  5
1AD8
330
1A59
100
AcDbEntity
  8
0
100
AcDbLine
 10
63.1354911545343
 20
-76.21911721103379
 30
0.0
 11
62.47952577754495
 21
46.76952327503977
 31
0.0
  0
LINE
  5
1AD9
330
1A59
100
AcDbEntity
  8
ASSE
100
AcDbLine
 10
117.4554192486473
 20
103.6198477429357
 30
0.0
 11
118.2307441950809
 21
-41.74782628666981
 31
0.0
  0
LINE
  5
1ADA
330
1A59
100
AcDbEntity
  8
0
100
AcDbLine
 10
130.1715472448513
 20
-6.761603064774135
 30
0.0
 11
142.2591914706256
 21
38.48136838008031
 31
0.0
  0
LINE
  5
1ADB
330
1A59
100
AcDbEntity
  8
0
100
AcDbLine
 10
161.1552933996286
 20
-87.69649492084045
 30
0.0
 11
75.19932210070874
 21
-88.15494491178924
 31
0.0
  0
ARC
  5
1ADC
330
1A59
100
AcDbEntity
  8
0
100
AcDbCircle
 10
75.1353204779989
 20
-76.15511558832441
 30
0.0
 40
12.0
100
AcDbArc
 50
180.3055866873954
 51
270.3055866873954
  0
ARC
  5
1ADD
330
1A59
100
AcDbEntity
  8
0
100
AcDbCircle
 10
117.4819559143895
 20
1.379536168366485
 30
0.0
 40
15.07660028479595
100
AcDbArc
 50
209.1095686839556
 51
227.3828301462501
  0
ARC
  5
1ADE
330
1A59
100
AcDbEntity
  8
0
100
AcDbCircle
 10
161.0912917769178
 20
-75.69666559737607
 30
0.0
 40
12.0
100
AcDbArc
 50
270.3055866873954
 51
0.3055866873986775
  0
ARC
  5
1ADF
330
1A59
100
AcDbEntity
  8
0
100
AcDbCircle
 10
117.4819559143895
 20
1.379536168366485
 30
0.0
 40
15.07660028479595
100
AcDbArc
 50
317.0874932552984
 51
327.3173767165694
  0
CIRCLE
  5
1AE0
330
1A59
100
AcDbEntity
  8
0
100
AcDbCircle
 10
117.6826726122403
 20
51.30209748833022
 30
0.0
 40
10.0
  0
LINE
  5
1AE1
330
1A59
100
AcDbEntity
  8
ASSE
100
AcDbLine
 10
153.912452373833
 20
51.7403236946011
 30
0.0
 11
80.47105890287708
 21
51.34862076037553
 31
0.0
  0
CIRCLE
  5
1AE2
330
1A59
100
AcDbEntity
  8
0
100
AcDbCircle
 10
117.6826726122403
 20
51.30209748833022
 30
0.0
 40
21.92606435362723
  0
LINE
  5
1AE3
330
1A59
100
AcDbEntity
  8
0
100
AcDbLine
 10
77.98614555601966
 20
104.8626638215441
 30
0.0
 11
156.5248364503375
 21
105.2815534179908
 31
0.0
  0
LINE
  5
1AE4
330
1A59
100
AcDbEntity
  8
0
100
AcDbLine
 10
141.9641867681491
 20
83.44355653774346
 30
0.0
 11
91.96489792037846
 21
83.176883109787
 31
0.0
  0
LINE
  5
1AE5
330
1A59
100
AcDbEntity
  8
0
100
AcDbLine
 10
62.77950366690197
 20
46.70250038631183
 30
0.0
 11
78.04881769490748
 21
104.9510440564527
 31
0.0
  0
LINE
  5
1AE6
330
1A59
100
AcDbEntity
  8
0
100
AcDbLine
 10
91.96489792037846
 20
83.176883109787
 30
0.0
 11
92.20406872502804
 21
38.33413204443832
 31
0.0
  0
LINE
  5
1AE7
330
1A59
100
AcDbEntity
  8
0
100
AcDbLine
 10
20.23899337167791
 20
120.846186423651
 30
0.0
 11
20.30339909886993
 21
108.7705905083808
 31
0.0
  0
LINE
  5
1AE8
330
1A59
100
AcDbEntity
  8
0
100
AcDbLine
 10
20.30339909886993
 20
108.7705905083808
 30
0.0
 11
32.30322842233477
 21
108.8345921310901
 31
0.0
  0
LINE
  5
1AE9
330
1A59
100
AcDbEntity
  8
0
100
AcDbLine
 10
142.2033575727989
 20
38.60080547239522
 30
0.0
 11
141.9641867681491
 21
83.44355653774346
 31
0.0
  0
LINE
  5
1AEA
330
1A59
100
AcDbEntity
  8
0
100
AcDbLine
 10
172.435521715917
 20
47.28735562931933
 30
0.0
 11
156.5457516709646
 21
105.3697109405211
 31
0.0
  0
LINE
  5
1AEB
330
1A59
100
AcDbEntity
  8
ASSE
100
AcDbLine
 10
172.8682267067543
 20
122.3604450911198
 30
0.0
 11
173.203097332718
 21
59.57468768568651
 31
0.0
  0
LINE
  5
1AEC
330
1A59
100
AcDbEntity
  8
0
100
AcDbLine
 10
113.8807876500193
 20
29.72292044864207
 30
0.0
 11
114.0297416515584
 21
1.795150497839131
 31
0.0
  0
LINE
  5
1AED
330
1A59
100
AcDbEntity
  8
0
100
AcDbLine
 10
121.9593268939359
 20
29.76600769653533
 30
0.0
 11
122.1108941839422
 21
1.348265550529504
 31
0.0
  0
LINE
  5
1AEE
330
1A59
100
AcDbEntity
  8
ASSE
100
AcDbLine
 10
203.9765771151226
 20
93.22551458785119
 30
0.0
 11
142.0724290739711
 21
92.89534606459165
 31
0.0
  0
LINE
  5
1AEF
330
1A59
100
AcDbEntity
  8
ASSE
100
AcDbLine
 10
173.0690495627725
 20
85.56207151523267
 30
0.0
 11
172.9890475343861
 21
100.5618581695644
 31
0.0
  0
CIRCLE
  5
1AF0
330
1A59
100
AcDbEntity
  8
VITE
100
AcDbCircle
 10
173.0290485485793
 20
93.06196484239809
 30
0.0
 40
4.978571428571428
  0
ARC
  5
1AF1
330
1A59
100
AcDbEntity
  8
0
100
AcDbCircle
 10
173.0244996370609
 20
93.06043030778074
 30
0.0
 40
14.5
100
AcDbArc
 50
224.4532235826828
 51
166.048260837995
  0
ARC
  5
1AF2
330
1A59
100
AcDbEntity
  8
0
100
AcDbCircle
 10
173.0244996370609
 20
93.06043030778074
 30
0.0
 40
13.0
100
AcDbArc
 50
208.067214421717
 51
181.6856592318009
  0
CIRCLE
  5
1AF3
330
1A59
100
AcDbEntity
  8
0
100
AcDbCircle
 10
173.0244996370609
 20
93.06043030778074
 30
0.0
 40
11.0
  0
LWPOLYLINE
  5
1AF4
330
1A59
100
AcDbEntity
  8
VITE
100
AcDbPolyline
 90
        6
 70
     1
 43
0.0
 10
179.5089407819848
 20
96.84935576185399
 10
172.9890179149708
 20
100.5674115900415
 10
166.5091256815647
 20
96.78002067058514
 10
166.5491563151729
 20
89.27457392294218
 10
173.0690791821878
 20
85.55651809475511
 10
179.5489714155931
 20
89.34390901421057
  0
CIRCLE
  5
1AF5
330
1A59
100
AcDbEntity
  8
VITE
100
AcDbCircle
 10
173.0290485485793
 20
93.06196484239809
 30
0.0
 40
6.5
  0
CIRCLE
  5
1AF6
330
1A59
100
AcDbEntity
  8
VITE
100
AcDbCircle
 10
173.0290485485793
 20
93.06196484239809
 30
0.0
 40
6.5
  0
CIRCLE
  5
1AF7
330
1A59
100
AcDbEntity
  8
VITE
100
AcDbCircle
 10
173.0290485485793
 20
93.06196484239809
 30
0.0
 40
5.75
  0
LINE
  5
1AF8
330
1A59
100
AcDbEntity
  8
ASSE
100
AcDbLine
 10
180.5289418757452
 20
93.10196585659197
 30
0.0
 11
165.5291552214132
 21
93.02196382820421
 31
0.0
  0
ARC
  5
1AF9
330
1A59
100
AcDbEntity
  8
COSTRUZIONE
100
AcDbCircle
 10
264.6135374574192
 20
-4.558452290639138
 30
0.0
 40
4.014477155476527
100
AcDbArc
 50
148.2117796047919
 51
328.2117796047919
  0
LINE
  5
1AFA
330
1A59
100
AcDbEntity
  8
COSTRUZIONE
100
AcDbLine
 10
267.7708927961291
 20
-7.037793755013126
 30
0.0
 11
274.7006571016366
 21
4.124589550608106
 31
0.0
  0
ARC
  5
1AFB
330
1A59
100
AcDbEntity
  8
0
100
AcDbCircle
 10
254.4397776940718
 20
-5.777740510361809
 30
0.0
 40
13.0
100
AcDbArc
 50
91.12502195559796
 51
204.4480527542834
  0
ARC
  5
1AFC
330
1A59
100
AcDbEntity
  8
0
100
AcDbCircle
 10
254.4397776940718
 20
-5.777740510361809
 30
0.0
 40
11.0
100
AcDbArc
 50
97.7615315563597
 51
198.3204874186282
  0
LINE
  5
1AFD
330
1A59
100
AcDbEntity
  8
ASSE
100
AcDbLine
 10
236.5006044920519
 20
5.339912752298005
 30
0.0
 11
270.5886437449454
 21
-15.78586581897639
 31
0.0
  0
LINE
  5
1AFE
330
1A59
100
AcDbEntity
  8
COSTRUZIONE
100
AcDbLine
 10
266.7847421388051
 20
-48.47635185642388
 30
0.0
 11
303.6594158115431
 21
11.02371908075292
 31
0.0
  0
LINE
  5
1AFF
330
1A59
100
AcDbEntity
  8
COSTRUZIONE
100
AcDbLine
 10
248.8117384838656
 20
-4.573337973519755
 30
0.0
 11
270.6383276745037
 21
-18.10018493549228
 31
0.0
  0
LINE
  5
1B00
330
1A59
100
AcDbEntity
  8
COSTRUZIONE
100
AcDbLine
 10
223.8902733917334
 20
-41.77654233446822
 30
0.0
 11
255.6578938877451
 21
9.482912590971409
 31
0.0
  0
LINE
  5
1B01
330
1A59
100
AcDbEntity
  8
COSTRUZIONE
100
AcDbLine
 10
227.2431202931884
 20
-41.10499742319833
 30
0.0
 11
249.5804345033789
 21
-5.049730932832517
 31
0.0
  0
LINE
  5
1B02
330
1A59
100
AcDbEntity
  8
COSTRUZIONE
100
AcDbLine
 10
324.4491341286703
 20
68.72761534892607
 30
0.0
 11
248.3537917798212
 21
-54.05796664505487
 31
0.0
  0
LINE
  5
1B03
330
1A59
100
AcDbEntity
  8
COSTRUZIONE
100
AcDbLine
 10
258.2847320049227
 20
-43.20854133174691
 30
0.0
 11
326.7662688257219
 21
67.29159040872445
 31
0.0
  0
LINE
  5
1B04
330
1A59
100
AcDbEntity
  8
ASSE
100
AcDbLine
 39
0.1234
 10
229.3697931153492
 20
-28.79035082218343
 30
0.0
 11
229.3697931153492
 21
-91.99956782732192
 31
0.0
  0
CIRCLE
  5
1B05
330
1A59
100
AcDbEntity
  8
COSTRUZIONE
100
AcDbCircle
 10
229.7163027396637
 20
-60.95149254416231
 30
0.0
 40
20.0
  0
LINE
  5
1B06
330
1A59
100
AcDbEntity
  8
COSTRUZIONE
100
AcDbLine
 10
231.9891867866638
 20
-85.68456124334716
 30
0.0
 11
206.4772589160511
 21
-69.87375631196221
 31
0.0
  0
LINE
  5
1B07
330
1A59
100
AcDbEntity
  8
COSTRUZIONE
100
AcDbLine
 10
235.4410894662586
 20
-80.11465556426424
 30
0.0
 11
231.9891867866638
 21
-85.68456124334716
 31
0.0
  0
LINE
  5
1B08
330
1A59
100
AcDbEntity
  8
COSTRUZIONE
100
AcDbLine
 10
258.2485300619428
 20
-43.31312762716573
 30
0.0
 11
249.3596758013882
 21
-57.65596530885147
 31
0.0
  0
LINE
  5
1B09
330
1A59
100
AcDbEntity
  8
ASSE
100
AcDbLine
 39
0.1234
 10
204.7474181717796
 20
-60.91484048779506
 30
0.0
 11
259.8419730264377
 21
-60.91484048779512
 31
0.0
  0
CIRCLE
  5
1B0A
330
1A59
100
AcDbEntity
  8
0
100
AcDbCircle
 10
229.3697931153492
 20
-60.914840487795
 30
0.0
 40
6.0
  0
LINE
  5
1B0B
330
1A59
100
AcDbEntity
  8
COSTRUZIONE
100
AcDbLine
 10
206.4772589160511
 20
-69.87375631196221
 30
0.0
 11
209.9843326844051
 21
-64.21482791435977
 31
0.0
  0
CIRCLE
  5
1B0C
330
1A59
100
AcDbEntity
  8
COSTRUZIONE
100
AcDbCircle
 10
214.5387349734801
 20
-51.54983208510441
 30
0.0
 40
1.5
  0
LINE
  5
1B0D
330
1A59
100
AcDbEntity
  8
COSTRUZIONE
100
AcDbLine
 10
258.2847320049227
 20
-43.20854133174691
 30
0.0
 11
266.7847421388051
 21
-48.47635185642388
 31
0.0
  0
LINE
  5
1B0E
330
1A59
100
AcDbEntity
  8
COSTRUZIONE
100
AcDbLine
 10
258.2847320049227
 20
-43.20854133174691
 30
0.0
 11
258.4669501988292
 21
-42.91451851381737
 31
0.0
  0
LINE
  5
1B0F
330
1A59
100
AcDbEntity
  8
COSTRUZIONE
100
AcDbLine
 10
255.9667993563216
 20
-41.77202186771478
 30
0.0
 11
258.2847320049227
 21
-43.20854133174691
 31
0.0
  0
ARC
  5
1B10
330
1A59
100
AcDbEntity
  8
COSTRUZIONE
100
AcDbCircle
 10
302.6602455146556
 20
56.86613349074173
 30
0.0
 40
3.97942060725154
100
AcDbArc
 50
324.5619765594824
 51
149.4298783302872
  0
LINE
  5
1B11
330
1A59
100
AcDbEntity
  8
COSTRUZIONE
100
AcDbLine
 10
287.3644460350984
 20
39.74514450200013
 30
0.0
 11
299.3197453625296
 21
59.03592289289463
 31
0.0
  0
LINE
  5
1B12
330
1A59
100
AcDbEntity
  8
COSTRUZIONE
100
AcDbLine
 10
306.0873260474823
 20
54.84177109810002
 30
0.0
 11
294.164454142204
 21
35.53089608225832
 31
0.0
  0
LINE
  5
1B13
330
1A59
100
AcDbEntity
  8
COSTRUZIONE
100
AcDbLine
 10
303.6594158115431
 20
11.02371908075292
 30
0.0
 11
295.1377414079022
 21
16.304955856275
 31
0.0
  0
LINE
  5
1B14
330
1A59
100
AcDbEntity
  8
VITE
100
AcDbLine
 10
298.5451934004284
 20
1.311276764870399
 30
0.0
 11
302.7101983660309
 21
-1.269950392221289
 31
0.0
  0
LINE
  5
1B15
330
1A59
100
AcDbEntity
  8
VITE
100
AcDbLine
 10
296.8647618430564
 20
-1.400226467838137
 30
0.0
 11
301.0297668086589
 21
-3.981453624929827
 31
0.0
  0
LINE
  5
1B16
330
1A59
100
AcDbEntity
  8
VITE
100
AcDbLine
 10
297.0249768110318
 20
0.376949990490175
 30
0.0
 11
302.9196567881454
 21
9.888461330304608
 31
0.0
  0
ARC
  5
1B17
330
1A59
100
AcDbEntity
  8
VITE
100
AcDbCircle
 10
308.812327338811
 20
-0.3458172852558619
 30
0.0
 40
10.39999999998251
100
AcDbArc
 50
125.591914656718
 51
170.8316445528757
  0
LINE
  5
1B18
330
1A59
100
AcDbEntity
  8
ASSE
100
AcDbLine
 10
290.6811209047057
 20
10.89084697446469
 30
0.0
 11
311.4135346228877
 21
-1.957893846590195
 31
0.0
  0
LINE
  5
1B19
330
1A59
100
AcDbEntity
  8
COSTRUZIONE
100
AcDbLine
 10
300.5605183391413
 20
68.26042334755175
 30
0.0
 11
286.7790688388611
 21
59.69680577233157
 31
0.0
  0
LINE
  5
1B1A
330
1A59
100
AcDbEntity
  8
COSTRUZIONE
100
AcDbLine
 10
247.4554319699082
 20
-3.732778301663302
 30
0.0
 11
286.966572325648
 21
60.02143074814694
 31
0.0
  0
LINE
  5
1B1B
330
1A59
100
AcDbEntity
  8
COSTRUZIONE
100
AcDbLine
 10
249.5804345033789
 20
-5.049730932832517
 30
0.0
 11
247.4554319699082
 21
-3.732778301663302
 31
0.0
  0
LINE
  5
1B1C
330
1A59
100
AcDbEntity
  8
COSTRUZIONE
100
AcDbLine
 10
274.2976639799813
 20
18.66090478505634
 30
0.0
 11
280.9674310496473
 21
29.42307768729325
 31
0.0
  0
LWPOLYLINE
  5
1B1D
330
1A59
100
AcDbEntity
  8
VITE
100
AcDbPolyline
 90
        6
 70
     1
 43
0.0
 10
287.3317297951782
 20
24.97508861185202
 10
293.9456706765109
 20
28.52320351297521
 10
294.1798834772583
 20
36.0251017858991
 10
287.8001553966733
 20
39.97888515769978
 10
281.1862145153407
 20
36.43077025657658
 10
280.9520017145933
 20
28.9288719836527
  0
LINE
  5
1B1E
330
1A59
100
AcDbEntity
  8
ASSE
100
AcDbLine
 10
283.0883036499504
 20
25.25197827097577
 30
0.0
 11
292.0435815419012
 21
39.70199549857603
 31
0.0
  0
CIRCLE
  5
1B1F
330
1A59
100
AcDbEntity
  8
VITE
100
AcDbCircle
 10
287.5659425959256
 20
32.47698688477601
 30
0.0
 40
6.5
  0
LINE
  5
1B20
330
1A59
100
AcDbEntity
  8
ASSE
100
AcDbLine
 10
270.0215215948335
 20
4.167738554031984
 30
0.0
 11
278.9767994867843
 21
18.61775578163224
 31
0.0
  0
LINE
  5
1B21
330
1A59
100
AcDbEntity
  8
ASSE
100
AcDbLine
 10
267.2741519270089
 20
15.8703861138074
 30
0.0
 11
281.7241691546089
 21
6.915108221856826
 31
0.0
  0
LWPOLYLINE
  5
1B22
330
1A59
100
AcDbEntity
  8
VITE
100
AcDbPolyline
 90
        6
 70
     1
 43
0.0
 10
274.2649477400614
 20
3.890848894908231
 10
280.8788886213938
 20
7.43896379603143
 10
281.1131014221414
 20
14.94086206895531
 10
274.7333733415562
 20
18.89464544075599
 10
268.1194324602238
 20
15.34653053963279
 10
267.8852196594764
 20
7.844632266708913
  0
CIRCLE
  5
1B23
330
1A59
100
AcDbEntity
  8
VITE
100
AcDbCircle
 10
274.4991605408088
 20
11.39274716783222
 30
0.0
 40
6.5
  0
LINE
  5
1B24
330
1A59
100
AcDbEntity
  8
COSTRUZIONE
100
AcDbLine
 10
267.9006489945304
 20
8.338837970349459
 30
0.0
 11
261.0340974934422
 21
-2.740861474165967
 31
0.0
  0
ARC
  5
1B25
330
1A59
100
AcDbEntity
  8
VITE
100
AcDbCircle
 10
298.7164921089443
 20
-0.6713525348792473
 30
0.0
 40
1.990015625005356
100
AcDbArc
 50
94.93807888100265
 51
201.4854803285026
  0
LINE
  5
1B26
330
1A59
100
AcDbEntity
  8
COSTRUZIONE
100
AcDbLine
 10
281.0976720870872
 20
14.44665636531454
 30
0.0
 11
287.7674391567534
 21
25.20882926755189
 31
0.0
  0
LINE
  5
1B27
330
1A59
100
AcDbEntity
  8
COSTRUZIONE
100
AcDbLine
 10
285.7376071235849
 20
21.93354197861322
 30
0.0
 11
282.3108881042549
 21
24.05722256614331
 31
0.0
  0
LINE
  5
1B28
330
1A59
100
AcDbEntity
  8
ASSE
100
AcDbLine
 10
280.3409339821257
 20
36.95462583075118
 30
0.0
 11
294.7909512097258
 21
27.99934793880061
 31
0.0
  0
ARC
  5
1B29
330
1A59
100
AcDbEntity
  8
VITE
100
AcDbCircle
 10
304.6111720860579
 20
8.840158804935072
 30
0.0
 40
1.990015625005242
100
AcDbArc
 50
94.93807888101562
 51
201.4854803285026
  0
LINE
  5
1B2A
330
1A59
100
AcDbEntity
  8
FILETTO
100
AcDbLine
 10
306.7502498733142
 20
-3.758172547866251
 30
0.0
 11
310.9644982930554
 21
3.041835559239643
 31
0.0
  0
LINE
  5
1B2B
330
1A59
100
AcDbEntity
  8
VITE
100
AcDbLine
 10
311.3143960215007
 20
1.551417343623143
 30
0.0
 11
308.2406680889303
 21
-3.408274819421194
 31
0.0
  0
LINE
  5
1B2C
330
1A59
100
AcDbEntity
  8
VITE
100
AcDbLine
 10
307.6114175583784
 20
5.119879432836341
 30
0.0
 11
310.9644982930554
 21
3.041835559239643
 31
0.0
  0
LINE
  5
1B2D
330
1A59
100
AcDbEntity
  8
VITE
100
AcDbLine
 10
304.439873377542
 20
10.82278810468483
 30
0.0
 11
308.6048783431443
 21
8.241560947593143
 31
0.0
  0
LINE
  5
1B2E
330
1A59
100
AcDbEntity
  8
VITE
100
AcDbLine
 10
302.75944182017
 20
8.111284871976295
 30
0.0
 11
306.9244467857725
 21
5.530057714884605
 31
0.0
  0
ARC
  5
1B2F
330
1A59
100
AcDbEntity
  8
VITE
100
AcDbCircle
 10
306.7531480772509
 20
7.512687014632774
 30
0.0
 40
1.990015625004127
100
AcDbArc
 50
274.9380788811595
 51
21.48548032849109
  0
LINE
  5
1B30
330
1A59
100
AcDbEntity
  8
FILETTO
100
AcDbLine
 10
307.3205101168996
 20
-2.838014575835586
 30
0.0
 11
303.9674293822227
 21
-0.7599707022388884
 31
0.0
  0
LINE
  5
1B31
330
1A59
100
AcDbEntity
  8
VITE
100
AcDbLine
 10
306.7502498733142
 20
-3.758172547866251
 30
0.0
 11
303.3971691386369
 21
-1.680128674269553
 31
0.0
  0
LINE
  5
1B32
330
1A59
100
AcDbEntity
  8
VITE
100
AcDbLine
 10
308.2406680889303
 20
-3.408274819421194
 30
0.0
 11
306.7502498733142
 21
-3.758172547866251
 31
0.0
  0
ARC
  5
1B33
330
1A59
100
AcDbEntity
  8
VITE
100
AcDbCircle
 10
300.8584681001223
 20
-1.998824325172108
 30
0.0
 40
1.990015625014936
100
AcDbArc
 50
274.938078881578
 51
21.48548032807558
  0
ARC
  5
1B34
330
1A59
100
AcDbEntity
  8
VITE
100
AcDbCircle
 10
296.6573128473792
 20
7.187151765017574
 30
0.0
 40
10.39999999999405
100
AcDbArc
 50
305.5919146567506
 51
350.8316445528489
  0
LINE
  5
1B35
330
1A59
100
AcDbEntity
  8
VITE
100
AcDbLine
 10
302.5499833980555
 20
-3.04712685054983
 30
0.0
 11
308.444663375169
 21
6.464384489264602
 31
0.0
  0
LINE
  5
1B36
330
1A59
100
AcDbEntity
  8
FILETTO
100
AcDbLine
 10
307.0411573147926
 20
4.199721460805676
 30
0.0
 11
310.3942380494696
 21
2.121677587208978
 31
0.0
  0
LINE
  5
1B37
330
1A59
100
AcDbEntity
  8
VITE
100
AcDbLine
 10
310.9644982930554
 20
3.041835559239643
 30
0.0
 11
311.3143960215007
 21
1.551417343623143
 31
0.0
  0
LINE
  5
1B38
330
1A59
100
AcDbEntity
  8
ASSE
100
AcDbLine
 10
330.4635104986332
 20
97.3738107897193
 30
0.0
 11
320.5140990161526
 21
81.18711220253704
 31
0.0
  0
CIRCLE
  5
1B39
330
1A59
100
AcDbEntity
  8
VITE
100
AcDbCircle
 10
325.4363268130287
 20
89.31298426531133
 30
0.0
 40
6.5
  0
LINE
  5
1B3A
330
1A59
100
AcDbEntity
  8
ASSE
100
AcDbLine
 10
333.5296761066197
 20
84.3382785240708
 30
0.0
 11
317.3429775194377
 21
94.28769000655142
 31
0.0
  0
ARC
  5
1B3B
330
1A59
100
AcDbEntity
  8
COSTRUZIONE
100
AcDbCircle
 10
325.3965047375009
 20
89.2960756483019
 30
0.0
 40
10.03538752971838
100
AcDbArc
 50
328.225895213386
 51
148.239699427273
  0
LINE
  5
1B3C
330
1A59
100
AcDbEntity
  8
COSTRUZIONE
100
AcDbLine
 10
317.0555022199546
 20
94.87632562580234
 30
0.0
 11
300.5605183391413
 21
68.26042334755175
 31
0.0
  0
INSERT
  5
1B3D
330
1A59
100
AcDbEntity
  8
SEZIONE
100
AcDbBlockReference
  2
*X10
 10
165.711967840079
 20
319.0487624496385
 30
0.0
 50
238.2117796047964
1001
ACAD
1000
HATCH
1002
{
1070
    19
1000
AR-SAND
1040
3.0
1040
0.0
1002
}
  0
ARC
  5
1B3E
330
1A59
100
AcDbEntity
  8
COSTRUZIONE
100
AcDbCircle
 10
325.4198523413657
 20
89.28611306432435
 30
0.0
 40
20.00029388615192
100
AcDbArc
 50
268.2514904710282
 51
208.0303609500807
  0
LINE
  5
1B3F
330
1A59
100
AcDbEntity
  8
COSTRUZIONE
100
AcDbLine
 10
333.9452030723137
 20
84.03967905174454
 30
0.0
 11
324.4645730610423
 21
68.7419665023101
 31
0.0
  0
LINE
  5
1B40
330
1A59
100
AcDbEntity
  8
COSTRUZIONE
100
AcDbLine
 10
326.7662688257219
 20
67.29159040872445
 30
0.0
 11
324.4548694593432
 21
68.72406092548363
 31
0.0
  0
LWPOLYLINE
  5
1B41
330
1A59
100
AcDbEntity
  8
VITE
100
AcDbPolyline
 90
        6
 70
     1
 43
0.0
 10
325.5189205713878
 20
92.31184709496506
 10
322.8805322992625
 20
90.88394397307139
 10
322.7979385409039
 20
87.88508114341743
 10
325.3537330546692
 20
86.31412143565739
 10
327.992121326794
 20
87.74202455755107
 10
328.0747150851535
 20
90.7408873872048
  0
LINE
  5
1B42
330
1A59
100
AcDbEntity
  8
0
100
AcDbLine
 10
19.51212855163999
 20
257.1279463602618
 30
0.0
 11
19.44772282444751
 21
269.203542275528
 31
0.0
  0
LINE
  5
1B43
330
1A59
100
AcDbEntity
  8
0
100
AcDbLine
 10
32.09160956339906
 20
148.5115578288778
 30
0.0
 11
20.09178023993422
 21
148.447556206168
 31
0.0
  0
LINE
  5
1B44
330
1A59
100
AcDbEntity
  8
0
100
AcDbLine
 10
40.70405394668023
 20
324.0208192086375
 30
0.0
 11
196.0475007484458
 21
324.8493503822601
 31
0.0
  0
LINE
  5
1B45
330
1A59
100
AcDbEntity
  8
0
100
AcDbLine
 10
44.30793346830592
 20
324.2229137581389
 30
0.0
 11
44.46793752508006
 21
294.2233404494764
 31
0.0
  0
LINE
  5
1B46
330
1A59
100
AcDbEntity
  8
0
100
AcDbLine
 10
44.46793752508006
 20
294.2233404494764
 30
0.0
 11
40.86308266940887
 21
294.2041137959823
 31
0.0
  0
LINE
  5
1B47
330
1A59
100
AcDbEntity
  8
0
100
AcDbLine
 10
195.8496842200318
 20
324.5489590417087
 30
0.0
 11
195.6896801632576
 21
354.5485323503717
 31
0.0
  0
ENDBLK
  5
1B49
330
1A59
100
AcDbEntity
  8
0
100
AcDbBlockEnd
  0
BLOCK
  5
1D08
330
1C89
100
AcDbEntity
  8
0
100
AcDbBlockBegin
  2
*X12
 70
     1
 10
0.0
 20
0.0
 30
0.0
  3
*X12
  1

  0
LINE
  5
1C8A
330
1C89
100
AcDbEntity
  8
0
 62
     0
100
AcDbLine
 10
106.3438484705329
 20
241.5884870300659
 30
0.0
 11
106.3438484705329
 21
241.5884870300659
 31
0.0
  0
LINE
  5
1C8B
330
1C89
100
AcDbEntity
  8
0
 62
     0
100
AcDbLine
 10
110.2114460044527
 20
244.5561989964834
 30
0.0
 11
110.2114460044527
 21
244.5561989964834
 31
0.0
  0
LINE
  5
1C8C
330
1C89
100
AcDbEntity
  8
0
 62
     0
100
AcDbLine
 10
98.49107512899085
 20
241.4883229328812
 30
0.0
 11
98.49107512899085
 21
241.4883229328812
 31
0.0
  0
LINE
  5
1C8D
330
1C89
100
AcDbEntity
  8
0
 62
     0
100
AcDbLine
 10
102.1087663607189
 20
244.2642750491609
 30
0.0
 11
102.1087663607189
 21
244.2642750491609
 31
0.0
  0
LINE
  5
1C8E
330
1C89
100
AcDbEntity
  8
0
 62
     0
100
AcDbLine
 10
106.1548683962042
 20
247.3689583371054
 30
0.0
 11
106.1548683962042
 21
247.3689583371054
 31
0.0
  0
LINE
  5
1C8F
330
1C89
100
AcDbEntity
  8
0
 62
     0
100
AcDbLine
 10
98.30209505466202
 20
247.2687942399206
 30
0.0
 11
98.30209505466202
 21
247.2687942399206
 31
0.0
  0
LINE
  5
1C90
330
1C89
100
AcDbEntity
  8
0
 62
     0
100
AcDbLine
 10
101.91978628639
 20
250.0447463562004
 30
0.0
 11
101.91978628639
 21
250.0447463562004
 31
0.0
  0
LINE
  5
1C91
330
1C89
100
AcDbEntity
  8
0
 62
     0
100
AcDbLine
 10
124.9825678886562
 20
267.7414410974839
 30
0.0
 11
124.9825678886562
 21
267.7414410974839
 31
0.0
  0
LINE
  5
1C92
330
1C89
100
AcDbEntity
  8
0
 62
     0
100
AcDbLine
 10
94.24551744641341
 20
250.0815535805426
 30
0.0
 11
94.24551744641341
 21
250.0815535805426
 31
0.0
  0
LINE
  5
1C93
330
1C89
100
AcDbEntity
  8
0
 62
     0
100
AcDbLine
 10
98.11311498033319
 20
253.0492655469601
 30
0.0
 11
98.11311498033319
 21
253.0492655469601
 31
0.0
  0
LINE
  5
1C94
330
1C89
100
AcDbEntity
  8
0
 62
     0
100
AcDbLine
 10
117.3082990486796
 20
267.7782483218261
 30
0.0
 11
117.3082990486796
 21
267.7782483218261
 31
0.0
  0
LINE
  5
1C95
330
1C89
100
AcDbEntity
  8
0
 62
     0
100
AcDbLine
 10
121.1758965825993
 20
270.7459602882437
 30
0.0
 11
121.1758965825993
 21
270.7459602882437
 31
0.0
  0
LINE
  5
1C96
330
1C89
100
AcDbEntity
  8
0
 62
     0
100
AcDbLine
 10
94.0565373720846
 20
255.8620248875821
 30
0.0
 11
94.0565373720846
 21
255.8620248875821
 31
0.0
  0
LINE
  5
1C97
330
1C89
100
AcDbEntity
  8
0
 62
     0
100
AcDbLine
 10
97.92413490600438
 20
258.8297368539996
 30
0.0
 11
97.92413490600438
 21
258.8297368539996
 31
0.0
  0
LINE
  5
1C98
330
1C89
100
AcDbEntity
  8
0
 62
     0
100
AcDbLine
 10
101.5418261377324
 20
261.6056889702794
 30
0.0
 11
101.5418261377324
 21
261.6056889702794
 31
0.0
  0
LINE
  5
1C99
330
1C89
100
AcDbEntity
  8
0
 62
     0
100
AcDbLine
 10
109.4555257071374
 20
267.6780842246413
 30
0.0
 11
109.4555257071374
 21
267.6780842246413
 31
0.0
  0
LINE
  5
1C9A
330
1C89
100
AcDbEntity
  8
0
 62
     0
100
AcDbLine
 10
113.0732169388654
 20
270.4540363409211
 30
0.0
 11
113.0732169388654
 21
270.4540363409211
 31
0.0
  0
LINE
  5
1C9B
330
1C89
100
AcDbEntity
  8
0
 62
     0
100
AcDbLine
 10
117.1193189743507
 20
273.5587196288656
 30
0.0
 11
117.1193189743507
 21
273.5587196288656
 31
0.0
  0
LINE
  5
1C9C
330
1C89
100
AcDbEntity
  8
0
 62
     0
100
AcDbLine
 10
93.86755729775577
 20
261.6424961946215
 30
0.0
 11
93.86755729775577
 21
261.6424961946215
 31
0.0
  0
LINE
  5
1C9D
330
1C89
100
AcDbEntity
  8
0
 62
     0
100
AcDbLine
 10
97.73515483167555
 20
264.610208161039
 30
0.0
 11
97.73515483167555
 21
264.610208161039
 31
0.0
  0
LINE
  5
1C9E
330
1C89
100
AcDbEntity
  8
0
 62
     0
100
AcDbLine
 10
101.3528460634036
 20
267.3861602773188
 30
0.0
 11
101.3528460634036
 21
267.3861602773188
 31
0.0
  0
LINE
  5
1C9F
330
1C89
100
AcDbEntity
  8
0
 62
     0
100
AcDbLine
 10
105.3989480988889
 20
270.4908435652633
 30
0.0
 11
105.3989480988889
 21
270.4908435652633
 31
0.0
  0
LINE
  5
1CA0
330
1C89
100
AcDbEntity
  8
0
 62
     0
100
AcDbLine
 10
109.2665456328086
 20
273.4585555316808
 30
0.0
 11
109.2665456328086
 21
273.4585555316808
 31
0.0
  0
LINE
  5
1CA1
330
1C89
100
AcDbEntity
  8
0
 62
     0
100
AcDbLine
 10
112.8842368645367
 20
276.2345076479606
 30
0.0
 11
112.8842368645367
 21
276.2345076479606
 31
0.0
  0
LINE
  5
1CA2
330
1C89
100
AcDbEntity
  8
0
 62
     0
100
AcDbLine
 10
97.54617475734669
 20
270.3906794680785
 30
0.0
 11
97.54617475734669
 21
270.3906794680785
 31
0.0
  0
LINE
  5
1CA3
330
1C89
100
AcDbEntity
  8
0
 62
     0
100
AcDbLine
 10
101.1638659890747
 20
273.1666315843583
 30
0.0
 11
101.1638659890747
 21
273.1666315843583
 31
0.0
  0
LINE
  5
1CA4
330
1C89
100
AcDbEntity
  8
0
 62
     0
100
AcDbLine
 10
110.4004260787815
 20
238.7757276894439
 30
0.0
 11
110.4004260787815
 21
238.7757276894439
 31
0.0
  0
LINE
  5
1CA5
330
1C89
100
AcDbEntity
  8
0
 62
     0
100
AcDbLine
 10
114.0181173105096
 20
241.5516798057237
 30
0.0
 11
114.0181173105096
 21
241.5516798057237
 31
0.0
  0
LINE
  5
1CA6
330
1C89
100
AcDbEntity
  8
0
 62
     0
100
AcDbLine
 10
118.0642193459949
 20
244.6563630936682
 30
0.0
 11
118.0642193459949
 21
244.6563630936682
 31
0.0
  0
LINE
  5
1CA7
330
1C89
100
AcDbEntity
  8
0
 62
     0
100
AcDbLine
 10
118.2531994203237
 20
238.8758917866287
 30
0.0
 11
118.2531994203237
 21
238.8758917866287
 31
0.0
  0
LINE
  5
1CA8
330
1C89
100
AcDbEntity
  8
0
 62
     0
100
AcDbLine
 10
122.1207969542435
 20
241.8436037530462
 30
0.0
 11
122.1207969542435
 21
241.8436037530462
 31
0.0
  0
LINE
  5
1CA9
330
1C89
100
AcDbEntity
  8
0
 62
     0
100
AcDbLine
 10
125.7384881859715
 20
244.619555869326
 30
0.0
 11
125.7384881859715
 21
244.619555869326
 31
0.0
  0
LINE
  5
1CAA
330
1C89
100
AcDbEntity
  8
0
 62
     0
100
AcDbLine
 10
91.9113680268915
 20
252.8913615456751
 30
0.0
 11
91.9113680268915
 21
252.8913615456751
 31
0.0
  0
LINE
  5
1CAB
330
1C89
100
AcDbEntity
  8
0
 62
     0
100
AcDbLine
 10
94.35032238587108
 20
253.2124559785363
 30
0.0
 11
94.35032238587108
 21
253.2124559785363
 31
0.0
  0
LINE
  5
1CAC
330
1C89
100
AcDbEntity
  8
0
 62
     0
100
AcDbLine
 10
98.42516076611744
 20
253.7489186285608
 30
0.0
 11
98.42516076611744
 21
253.7489186285608
 31
0.0
  0
LINE
  5
1CAD
330
1C89
100
AcDbEntity
  8
0
 62
     0
100
AcDbLine
 10
99.98668642278119
 20
253.9544973813073
 30
0.0
 11
99.98668642278119
 21
253.9544973813073
 31
0.0
  0
LINE
  5
1CAE
330
1C89
100
AcDbEntity
  8
0
 62
     0
100
AcDbLine
 10
91.58433410578458
 20
260.6157583385932
 30
0.0
 11
91.58433410578458
 21
260.6157583385932
 31
0.0
  0
LINE
  5
1CAF
330
1C89
100
AcDbEntity
  8
0
 62
     0
100
AcDbLine
 10
95.65917248603094
 20
261.1522209886177
 30
0.0
 11
95.65917248603094
 21
261.1522209886177
 31
0.0
  0
LINE
  5
1CB0
330
1C89
100
AcDbEntity
  8
0
 62
     0
100
AcDbLine
 10
97.22069814269469
 20
261.3577997413643
 30
0.0
 11
97.22069814269469
 21
261.3577997413643
 31
0.0
  0
LINE
  5
1CB1
330
1C89
100
AcDbEntity
  8
0
 62
     0
100
AcDbLine
 10
99.65965250167426
 20
261.6788941742256
 30
0.0
 11
99.65965250167426
 21
261.6788941742256
 31
0.0
  0
LINE
  5
1CB2
330
1C89
100
AcDbEntity
  8
0
 62
     0
100
AcDbLine
 10
96.8936642215878
 20
269.0821965342824
 30
0.0
 11
96.8936642215878
 21
269.0821965342824
 31
0.0
  0
LINE
  5
1CB3
330
1C89
100
AcDbEntity
  8
0
 62
     0
100
AcDbLine
 10
100.9685026018341
 20
269.6186591843069
 30
0.0
 11
100.9685026018341
 21
269.6186591843069
 31
0.0
  0
LINE
  5
1CB4
330
1C89
100
AcDbEntity
  8
0
 62
     0
100
AcDbLine
 10
102.5300282584979
 20
269.8242379370535
 30
0.0
 11
102.5300282584979
 21
269.8242379370535
 31
0.0
  0
LINE
  5
1CB5
330
1C89
100
AcDbEntity
  8
0
 62
     0
100
AcDbLine
 10
104.9689826174775
 20
270.1453323699148
 30
0.0
 11
104.9689826174775
 21
270.1453323699148
 31
0.0
  0
LINE
  5
1CB6
330
1C89
100
AcDbEntity
  8
0
 62
     0
100
AcDbLine
 10
109.0438209977238
 20
270.6817950199392
 30
0.0
 11
109.0438209977238
 21
270.6817950199392
 31
0.0
  0
LINE
  5
1CB7
330
1C89
100
AcDbEntity
  8
0
 62
     0
100
AcDbLine
 10
110.6053466543876
 20
270.8873737726858
 30
0.0
 11
110.6053466543876
 21
270.8873737726858
 31
0.0
  0
LINE
  5
1CB8
330
1C89
100
AcDbEntity
  8
0
 62
     0
100
AcDbLine
 10
113.0443010133671
 20
271.2084682055472
 30
0.0
 11
113.0443010133671
 21
271.2084682055472
 31
0.0
  0
LINE
  5
1CB9
330
1C89
100
AcDbEntity
  8
0
 62
     0
100
AcDbLine
 10
117.1191393936135
 20
271.7449308555716
 30
0.0
 11
117.1191393936135
 21
271.7449308555716
 31
0.0
  0
LINE
  5
1CBA
330
1C89
100
AcDbEntity
  8
0
 62
     0
100
AcDbLine
 10
118.6806650502773
 20
271.9505096083182
 30
0.0
 11
118.6806650502773
 21
271.9505096083182
 31
0.0
  0
LINE
  5
1CBB
330
1C89
100
AcDbEntity
  8
0
 62
     0
100
AcDbLine
 10
121.1196194092568
 20
272.2716040411795
 30
0.0
 11
121.1196194092568
 21
272.2716040411795
 31
0.0
  0
LINE
  5
1CBC
330
1C89
100
AcDbEntity
  8
0
 62
     0
100
AcDbLine
 10
94.67735630697802
 20
245.4880591856182
 30
0.0
 11
94.67735630697802
 21
245.4880591856182
 31
0.0
  0
LINE
  5
1CBD
330
1C89
100
AcDbEntity
  8
0
 62
     0
100
AcDbLine
 10
97.1163106659576
 20
245.8091536184795
 30
0.0
 11
97.1163106659576
 21
245.8091536184795
 31
0.0
  0
LINE
  5
1CBE
330
1C89
100
AcDbEntity
  8
0
 62
     0
100
AcDbLine
 10
101.1911490462039
 20
246.3456162685039
 30
0.0
 11
101.1911490462039
 21
246.3456162685039
 31
0.0
  0
LINE
  5
1CBF
330
1C89
100
AcDbEntity
  8
0
 62
     0
100
AcDbLine
 10
102.7526747028677
 20
246.5511950212505
 30
0.0
 11
102.7526747028677
 21
246.5511950212505
 31
0.0
  0
LINE
  5
1CC0
330
1C89
100
AcDbEntity
  8
0
 62
     0
100
AcDbLine
 10
105.1916290618473
 20
246.8722894541118
 30
0.0
 11
105.1916290618473
 21
246.8722894541118
 31
0.0
  0
LINE
  5
1CC1
330
1C89
100
AcDbEntity
  8
0
 62
     0
100
AcDbLine
 10
103.9571373262904
 20
238.942313908447
 30
0.0
 11
103.9571373262904
 21
238.942313908447
 31
0.0
  0
LINE
  5
1CC2
330
1C89
100
AcDbEntity
  8
0
 62
     0
100
AcDbLine
 10
105.5186629829542
 20
239.1478926611935
 30
0.0
 11
105.5186629829542
 21
239.1478926611935
 31
0.0
  0
LINE
  5
1CC3
330
1C89
100
AcDbEntity
  8
0
 62
     0
100
AcDbLine
 10
107.9576173419337
 20
239.4689870940549
 30
0.0
 11
107.9576173419337
 21
239.4689870940549
 31
0.0
  0
LINE
  5
1CC4
330
1C89
100
AcDbEntity
  8
0
 62
     0
100
AcDbLine
 10
112.0324557221801
 20
240.0054497440793
 30
0.0
 11
112.0324557221801
 21
240.0054497440793
 31
0.0
  0
LINE
  5
1CC5
330
1C89
100
AcDbEntity
  8
0
 62
     0
100
AcDbLine
 10
113.5939813788438
 20
240.2110284968259
 30
0.0
 11
113.5939813788438
 21
240.2110284968259
 31
0.0
  0
LINE
  5
1CC6
330
1C89
100
AcDbEntity
  8
0
 62
     0
100
AcDbLine
 10
116.0329357378234
 20
240.5321229296872
 30
0.0
 11
116.0329357378234
 21
240.5321229296872
 31
0.0
  0
LINE
  5
1CC7
330
1C89
100
AcDbEntity
  8
0
 62
     0
100
AcDbLine
 10
120.1077741180698
 20
241.0685855797116
 30
0.0
 11
120.1077741180698
 21
241.0685855797116
 31
0.0
  0
LINE
  5
1CC8
330
1C89
100
AcDbEntity
  8
0
 62
     0
100
AcDbLine
 10
121.6692997747335
 20
241.2741643324582
 30
0.0
 11
121.6692997747335
 21
241.2741643324582
 31
0.0
  0
LINE
  5
1CC9
330
1C89
100
AcDbEntity
  8
0
 62
     0
100
AcDbLine
 10
124.1082541337131
 20
241.5952587653195
 30
0.0
 11
124.1082541337131
 21
241.5952587653195
 31
0.0
  0
LINE
  5
1CCA
330
1C89
100
AcDbEntity
  8
0
 62
     0
100
AcDbLine
 10
97.19973585573924
 20
269.9766348934648
 30
0.0
 11
97.19973585573924
 21
269.9766348934648
 31
0.0
  0
LINE
  5
1CCB
330
1C89
100
AcDbEntity
  8
0
 62
     0
100
AcDbLine
 10
101.7540496631288
 20
267.0752170083919
 30
0.0
 11
101.7540496631288
 21
267.0752170083919
 31
0.0
  0
LINE
  5
1CCC
330
1C89
100
AcDbEntity
  8
0
 62
     0
100
AcDbLine
 10
105.2770742722744
 20
270.7995614665959
 30
0.0
 11
105.2770742722744
 21
270.7995614665959
 31
0.0
  0
LINE
  5
1CCD
330
1C89
100
AcDbEntity
  8
0
 62
     0
100
AcDbLine
 10
106.5421614409938
 20
269.9936120540757
 30
0.0
 11
106.5421614409938
 21
269.9936120540757
 31
0.0
  0
LINE
  5
1CCE
330
1C89
100
AcDbEntity
  8
0
 62
     0
100
AcDbLine
 10
111.0964752483833
 20
267.0921941690028
 30
0.0
 11
111.0964752483833
 21
267.0921941690028
 31
0.0
  0
LINE
  5
1CCF
330
1C89
100
AcDbEntity
  8
0
 62
     0
100
AcDbLine
 10
108.673590164548
 20
274.6045008660519
 30
0.0
 11
108.673590164548
 21
274.6045008660519
 31
0.0
  0
LINE
  5
1CD0
330
1C89
100
AcDbEntity
  8
0
 62
     0
100
AcDbLine
 10
114.6194998575288
 20
270.8165386272068
 30
0.0
 11
114.6194998575288
 21
270.8165386272068
 31
0.0
  0
LINE
  5
1CD1
330
1C89
100
AcDbEntity
  8
0
 62
     0
100
AcDbLine
 10
115.8845870262481
 20
270.0105892146865
 30
0.0
 11
115.8845870262481
 21
270.0105892146865
 31
0.0
  0
LINE
  5
1CD2
330
1C89
100
AcDbEntity
  8
0
 62
     0
100
AcDbLine
 10
120.4389008336377
 20
267.1091713296137
 30
0.0
 11
120.4389008336377
 21
267.1091713296137
 31
0.0
  0
LINE
  5
1CD3
330
1C89
100
AcDbEntity
  8
0
 62
     0
100
AcDbLine
 10
118.0160157498025
 20
274.6214780266628
 30
0.0
 11
118.0160157498025
 21
274.6214780266628
 31
0.0
  0
LINE
  5
1CD4
330
1C89
100
AcDbEntity
  8
0
 62
     0
100
AcDbLine
 10
123.9619254427834
 20
270.8335157878177
 30
0.0
 11
123.9619254427834
 21
270.8335157878177
 31
0.0
  0
LINE
  5
1CD5
330
1C89
100
AcDbEntity
  8
0
 62
     0
100
AcDbLine
 10
125.2270126115027
 20
270.0275663752975
 30
0.0
 11
125.2270126115027
 21
270.0275663752975
 31
0.0
  0
LINE
  5
1CD6
330
1C89
100
AcDbEntity
  8
0
 62
     0
100
AcDbLine
 10
98.35753377085531
 20
263.2702776089359
 30
0.0
 11
98.35753377085531
 21
263.2702776089359
 31
0.0
  0
LINE
  5
1CD7
330
1C89
100
AcDbEntity
  8
0
 62
     0
100
AcDbLine
 10
99.62262093957463
 20
262.4643281964157
 30
0.0
 11
99.62262093957463
 21
262.4643281964157
 31
0.0
  0
LINE
  5
1CD8
330
1C89
100
AcDbEntity
  8
0
 62
     0
100
AcDbLine
 10
94.83450916170964
 20
259.5459331507319
 30
0.0
 11
94.83450916170964
 21
259.5459331507319
 31
0.0
  0
LINE
  5
1CD9
330
1C89
100
AcDbEntity
  8
0
 62
     0
100
AcDbLine
 10
100.7804188546905
 20
255.7579709118868
 30
0.0
 11
100.7804188546905
 21
255.7579709118868
 31
0.0
  0
LINE
  5
1CDA
330
1C89
100
AcDbEntity
  8
0
 62
     0
100
AcDbLine
 10
118.3651304998892
 20
244.5552740778556
 30
0.0
 11
118.3651304998892
 21
244.5552740778556
 31
0.0
  0
LINE
  5
1CDB
330
1C89
100
AcDbEntity
  8
0
 62
     0
100
AcDbLine
 10
91.43799326943604
 20
255.7409937512759
 30
0.0
 11
91.43799326943604
 21
255.7409937512759
 31
0.0
  0
LINE
  5
1CDC
330
1C89
100
AcDbEntity
  8
0
 62
     0
100
AcDbLine
 10
92.70308043815537
 20
254.9350443387557
 30
0.0
 11
92.70308043815537
 21
254.9350443387557
 31
0.0
  0
LINE
  5
1CDD
330
1C89
100
AcDbEntity
  8
0
 62
     0
100
AcDbLine
 10
97.25739424554495
 20
252.0336264536828
 30
0.0
 11
97.25739424554495
 21
252.0336264536828
 31
0.0
  0
LINE
  5
1CDE
330
1C89
100
AcDbEntity
  8
0
 62
     0
100
AcDbLine
 10
103.2033039385258
 20
248.2456642148378
 30
0.0
 11
103.2033039385258
 21
248.2456642148378
 31
0.0
  0
LINE
  5
1CDF
330
1C89
100
AcDbEntity
  8
0
 62
     0
100
AcDbLine
 10
104.4683911072451
 20
247.4397148023175
 30
0.0
 11
104.4683911072451
 21
247.4397148023175
 31
0.0
  0
LINE
  5
1CE0
330
1C89
100
AcDbEntity
  8
0
 62
     0
100
AcDbLine
 10
109.0227049146347
 20
244.5382969172447
 30
0.0
 11
109.0227049146347
 21
244.5382969172447
 31
0.0
  0
LINE
  5
1CE1
330
1C89
100
AcDbEntity
  8
0
 62
     0
100
AcDbLine
 10
114.9686146076155
 20
240.7503346783995
 30
0.0
 11
114.9686146076155
 21
240.7503346783995
 31
0.0
  0
LINE
  5
1CE2
330
1C89
100
AcDbEntity
  8
0
 62
     0
100
AcDbLine
 10
116.2337017763348
 20
239.9443852658793
 30
0.0
 11
116.2337017763348
 21
239.9443852658793
 31
0.0
  0
LINE
  5
1CE3
330
1C89
100
AcDbEntity
  8
0
 62
     0
100
AcDbLine
 10
93.86087835327137
 20
248.2286870542269
 30
0.0
 11
93.86087835327137
 21
248.2286870542269
 31
0.0
  0
LINE
  5
1CE4
330
1C89
100
AcDbEntity
  8
0
 62
     0
100
AcDbLine
 10
95.12596552199068
 20
247.4227376417066
 30
0.0
 11
95.12596552199068
 21
247.4227376417066
 31
0.0
  0
LINE
  5
1CE5
330
1C89
100
AcDbEntity
  8
0
 62
     0
100
AcDbLine
 10
99.68027932938028
 20
244.5213197566338
 30
0.0
 11
99.68027932938028
 21
244.5213197566338
 31
0.0
  0
LINE
  5
1CE6
330
1C89
100
AcDbEntity
  8
0
 62
     0
100
AcDbLine
 10
105.6261890223611
 20
240.7333575177887
 30
0.0
 11
105.6261890223611
 21
240.7333575177887
 31
0.0
  0
LINE
  5
1CE7
330
1C89
100
AcDbEntity
  8
0
 62
     0
100
AcDbLine
 10
106.8912761910804
 20
239.9274081052685
 30
0.0
 11
106.8912761910804
 21
239.9274081052685
 31
0.0
  0
LINE
  5
1CE8
330
1C89
100
AcDbEntity
  8
0
 62
     0
100
AcDbLine
 10
111.44558999847
 20
237.0259902201956
 30
0.0
 11
111.44558999847
 21
237.0259902201956
 31
0.0
  0
LINE
  5
1CE9
330
1C89
100
AcDbEntity
  8
0
 62
     0
100
AcDbLine
 10
97.15195820477115
 20
267.1913955369581
 30
0.0
 11
97.15195820477115
 21
267.1913955369581
 31
0.0
  0
LINE
  5
1CEA
330
1C89
100
AcDbEntity
  8
0
 62
     0
100
AcDbLine
 10
97.70491620737875
 20
266.6847028812463
 30
0.0
 11
97.70491620737875
 21
266.6847028812463
 31
0.0
  0
LINE
  5
1CEB
330
1C89
100
AcDbEntity
  8
0
 62
     0
100
AcDbLine
 10
100.3148779796866
 20
264.2931135462869
 30
0.0
 11
100.3148779796866
 21
264.2931135462869
 31
0.0
  0
LINE
  5
1CEC
330
1C89
100
AcDbEntity
  8
0
 62
     0
100
AcDbLine
 10
121.7475301607569
 20
244.6537062108997
 30
0.0
 11
121.7475301607569
 21
244.6537062108997
 31
0.0
  0
LINE
  5
1CED
330
1C89
100
AcDbEntity
  8
0
 62
     0
100
AcDbLine
 10
122.3004881633645
 20
244.147013555188
 30
0.0
 11
122.3004881633645
 21
244.147013555188
 31
0.0
  0
LINE
  5
1CEE
330
1C89
100
AcDbEntity
  8
0
 62
     0
100
AcDbLine
 10
103.184364804407
 20
272.5605625726042
 30
0.0
 11
103.184364804407
 21
272.5605625726042
 31
0.0
  0
LINE
  5
1CEF
330
1C89
100
AcDbEntity
  8
0
 62
     0
100
AcDbLine
 10
106.170338018488
 20
269.8244222317608
 30
0.0
 11
106.170338018488
 21
269.8244222317608
 31
0.0
  0
LINE
  5
1CF0
330
1C89
100
AcDbEntity
  8
0
 62
     0
100
AcDbLine
 10
106.7232960210956
 20
269.3177295760491
 30
0.0
 11
106.7232960210956
 21
269.3177295760491
 31
0.0
  0
LINE
  5
1CF1
330
1C89
100
AcDbEntity
  8
0
 62
     0
100
AcDbLine
 10
109.3332577934035
 20
266.9261402410896
 30
0.0
 11
109.3332577934035
 21
266.9261402410896
 31
0.0
  0
LINE
  5
1CF2
330
1C89
100
AcDbEntity
  8
0
 62
     0
100
AcDbLine
 10
112.2027446181239
 20
275.193589267407
 30
0.0
 11
112.2027446181239
 21
275.193589267407
 31
0.0
  0
LINE
  5
1CF3
330
1C89
100
AcDbEntity
  8
0
 62
     0
100
AcDbLine
 10
115.1887178322049
 20
272.4574489265636
 30
0.0
 11
115.1887178322049
 21
272.4574489265636
 31
0.0
  0
LINE
  5
1CF4
330
1C89
100
AcDbEntity
  8
0
 62
     0
100
AcDbLine
 10
115.7416758348125
 20
271.9507562708519
 30
0.0
 11
115.7416758348125
 21
271.9507562708519
 31
0.0
  0
LINE
  5
1CF5
330
1C89
100
AcDbEntity
  8
0
 62
     0
100
AcDbLine
 10
118.3516376071203
 20
269.5591669358924
 30
0.0
 11
118.3516376071203
 21
269.5591669358924
 31
0.0
  0
LINE
  5
1CF6
330
1C89
100
AcDbEntity
  8
0
 62
     0
100
AcDbLine
 10
121.3376108212013
 20
266.823026595049
 30
0.0
 11
121.3376108212013
 21
266.823026595049
 31
0.0
  0
LINE
  5
1CF7
330
1C89
100
AcDbEntity
  8
0
 62
     0
100
AcDbLine
 10
94.28247138005071
 20
258.9239465106407
 30
0.0
 11
94.28247138005071
 21
258.9239465106407
 31
0.0
  0
LINE
  5
1CF8
330
1C89
100
AcDbEntity
  8
0
 62
     0
100
AcDbLine
 10
94.83542938265831
 20
258.417253854929
 30
0.0
 11
94.83542938265831
 21
258.417253854929
 31
0.0
  0
LINE
  5
1CF9
330
1C89
100
AcDbEntity
  8
0
 62
     0
100
AcDbLine
 10
97.44539115496614
 20
256.0256645199695
 30
0.0
 11
97.44539115496614
 21
256.0256645199695
 31
0.0
  0
LINE
  5
1CFA
330
1C89
100
AcDbEntity
  8
0
 62
     0
100
AcDbLine
 10
100.4313643690471
 20
253.2895241791261
 30
0.0
 11
100.4313643690471
 21
253.2895241791261
 31
0.0
  0
LINE
  5
1CFB
330
1C89
100
AcDbEntity
  8
0
 62
     0
100
AcDbLine
 10
100.9843223716547
 20
252.7828315234143
 30
0.0
 11
100.9843223716547
 21
252.7828315234143
 31
0.0
  0
LINE
  5
1CFC
330
1C89
100
AcDbEntity
  8
0
 62
     0
100
AcDbLine
 10
106.5802573580435
 20
247.6551018476115
 30
0.0
 11
106.5802573580435
 21
247.6551018476115
 31
0.0
  0
LINE
  5
1CFD
330
1C89
100
AcDbEntity
  8
0
 62
     0
100
AcDbLine
 10
107.1332153606511
 20
247.1484091918998
 30
0.0
 11
107.1332153606511
 21
247.1484091918998
 31
0.0
  0
LINE
  5
1CFE
330
1C89
100
AcDbEntity
  8
0
 62
     0
100
AcDbLine
 10
109.743177132959
 20
244.7568198569404
 30
0.0
 11
109.743177132959
 21
244.7568198569404
 31
0.0
  0
LINE
  5
1CFF
330
1C89
100
AcDbEntity
  8
0
 62
     0
100
AcDbLine
 10
112.72915034704
 20
242.0206795160969
 30
0.0
 11
112.72915034704
 21
242.0206795160969
 31
0.0
  0
LINE
  5
1D00
330
1C89
100
AcDbEntity
  8
0
 62
     0
100
AcDbLine
 10
113.2821083496476
 20
241.5139868603852
 30
0.0
 11
113.2821083496476
 21
241.5139868603852
 31
0.0
  0
LINE
  5
1D01
330
1C89
100
AcDbEntity
  8
0
 62
     0
100
AcDbLine
 10
115.8920701219554
 20
239.1223975254258
 30
0.0
 11
115.8920701219554
 21
239.1223975254258
 31
0.0
  0
LINE
  5
1D02
330
1C89
100
AcDbEntity
  8
0
 62
     0
100
AcDbLine
 10
94.57590433024572
 20
247.7582154936522
 30
0.0
 11
94.57590433024572
 21
247.7582154936522
 31
0.0
  0
LINE
  5
1D03
330
1C89
100
AcDbEntity
  8
0
 62
     0
100
AcDbLine
 10
97.56187754432673
 20
245.0220751528088
 30
0.0
 11
97.56187754432673
 21
245.0220751528088
 31
0.0
  0
LINE
  5
1D04
330
1C89
100
AcDbEntity
  8
0
 62
     0
100
AcDbLine
 10
98.11483554693431
 20
244.515382497097
 30
0.0
 11
98.11483554693431
 21
244.515382497097
 31
0.0
  0
LINE
  5
1D05
330
1C89
100
AcDbEntity
  8
0
 62
     0
100
AcDbLine
 10
100.7247973192421
 20
242.1237931621376
 30
0.0
 11
100.7247973192421
 21
242.1237931621376
 31
0.0
  0
LINE
  5
1D06
330
1C89
100
AcDbEntity
  8
0
 62
     0
100
AcDbLine
 10
103.7107705333231
 20
239.3876528212941
 30
0.0
 11
103.7107705333231
 21
239.3876528212941
 31
0.0
  0
LINE
  5
1D07
330
1C89
100
AcDbEntity
  8
0
 62
     0
100
AcDbLine
 10
104.2637285359307
 20
238.8809601655824
 30
0.0
 11
104.2637285359307
 21
238.8809601655824
 31
0.0
  0
ENDBLK
  5
1D09
330
1C89
100
AcDbEntity
  8
0
100
AcDbBlockEnd
  0
BLOCK
  5
244E
330
2444
100
AcDbEntity
  8
0
100
AcDbBlockBegin
  2
*D13
 70
     1
 10
0.0
 20
0.0
 30
0.0
  3
*D13
  1

  0
LINE
  5
2813
330
2444
100
AcDbEntity
  8
QUOTA
 62
     0
370
    -2
100
AcDbLine
 10
1456.123397533493
 20
4964.593631293118
 30
0.0
 11
1456.123397533493
 21
4700.597961994292
 31
0.0
  0
LINE
  5
2814
330
2444
100
AcDbEntity
  8
QUOTA
 62
     0
370
    -2
100
AcDbLine
 10
3256.123397533493
 20
4964.593631293118
 30
0.0
 11
3256.123397533493
 21
4700.597961994292
 31
0.0
  0
LINE
  5
2815
330
2444
100
AcDbEntity
  8
QUOTA
 62
     0
370
    -2
100
AcDbLine
 10
1483.123397533493
 20
4727.597961994291
 30
0.0
 11
3229.123397533493
 21
4727.597961994291
 31
0.0
  0
SOLID
  5
2816
330
2444
100
AcDbEntity
  8
QUOTA
 62
     0
100
AcDbTrace
 10
1483.123397533493
 20
4732.097961994291
 30
0.0
 11
1483.123397533493
 21
4723.097961994292
 31
0.0
 12
1456.123397533493
 22
4727.597961994291
 32
0.0
 13
1456.123397533493
 23
4727.597961994291
 33
0.0
  0
SOLID
  5
2817
330
2444
100
AcDbEntity
  8
QUOTA
 62
     0
100
AcDbTrace
 10
3229.123397533493
 20
4732.097961994291
 30
0.0
 11
3229.123397533493
 21
4723.097961994292
 31
0.0
 12
3256.123397533493
 22
4727.597961994291
 32
0.0
 13
3256.123397533493
 23
4727.597961994291
 33
0.0
  0
MTEXT
  5
2818
330
2444
100
AcDbEntity
  8
QUOTA
 62
     0
100
AcDbMText
 10
2356.123397533492
 20
4754.597961994291
 30
0.0
 40
27.0
 41
0.0
 71
     5
 72
     1
  1
\A1;1800 mm
 73
     1
 44
1.0
1001
ACAD
1000
MTEXTBEGIN
1070
    73
1070
     1
1070
    44
1040
1.0
1070
    74
1070
     0
1000
MTEXTEND
  0
POINT
  5
2819
330
2444
100
AcDbEntity
  8
DEFPOINTS
 62
     0
100
AcDbPoint
 10
1456.123397533493
 20
4973.593631293118
 30
0.0
  0
POINT
  5
281A
330
2444
100
AcDbEntity
  8
DEFPOINTS
 62
     0
100
AcDbPoint
 10
3256.123397533493
 20
4973.593631293118
 30
0.0
  0
POINT
  5
281B
330
2444
100
AcDbEntity
  8
DEFPOINTS
 62
     0
100
AcDbPoint
 10
3256.123397533493
 20
4727.597961994291
 30
0.0
  0
ENDBLK
  5
244F
330
2444
100
AcDbEntity
  8
0
100
AcDbBlockEnd
  0
BLOCK
  5
245A
330
2450
100
AcDbEntity
  8
0
100
AcDbBlockBegin
  2
*D14
 70
     1
 10
0.0
 20
0.0
 30
0.0
  3
*D14
  1

  0
LINE
  5
288A
330
2450
100
AcDbEntity
  8
QUOTA
 62
     0
370
    -2
100
AcDbLine
 10
1438.123397533492
 20
4973.593631293118
 30
0.0
 11
720.5463090570081
 21
4973.593631293118
 31
0.0
  0
LINE
  5
288B
330
2450
100
AcDbEntity
  8
QUOTA
 62
     0
370
    -2
100
AcDbLine
 10
1438.123397533492
 20
6623.590972992804
 30
0.0
 11
720.5463090570084
 21
6623.590972992804
 31
0.0
  0
LINE
  5
288C
330
2450
100
AcDbEntity
  8
QUOTA
 62
     0
370
    -2
100
AcDbLine
 10
747.546309057008
 20
5000.593631293118
 30
0.0
 11
747.5463090570084
 21
6596.590972992803
 31
0.0
  0
SOLID
  5
288D
330
2450
100
AcDbEntity
  8
QUOTA
 62
     0
100
AcDbTrace
 10
743.046309057008
 20
5000.593631293118
 30
0.0
 11
752.0463090570081
 21
5000.593631293118
 31
0.0
 12
747.546309057008
 22
4973.593631293118
 32
0.0
 13
747.546309057008
 23
4973.593631293118
 33
0.0
  0
SOLID
  5
288E
330
2450
100
AcDbEntity
  8
QUOTA
 62
     0
100
AcDbTrace
 10
743.0463090570084
 20
6596.590972992803
 30
0.0
 11
752.0463090570084
 21
6596.590972992803
 31
0.0
 12
747.5463090570084
 22
6623.590972992804
 32
0.0
 13
747.5463090570084
 23
6623.590972992804
 33
0.0
  0
MTEXT
  5
288F
330
2450
100
AcDbEntity
  8
QUOTA
 62
     0
100
AcDbMText
 10
720.5463090570073
 20
5798.59230214296
 30
0.0
 40
27.0
 41
0.0
 71
     5
 72
     1
  1
\A1;1650 mm
 11
0.0000000000000001
 21
1.0
 31
0.0
 73
     1
 44
1.0
1001
ACAD
1000
MTEXTBEGIN
1070
    73
1070
     1
1070
    44
1040
1.0
1070
    74
1070
     0
1000
MTEXTEND
  0
POINT
  5
2890
330
2450
100
AcDbEntity
  8
DEFPOINTS
 62
     0
100
AcDbPoint
 10
1447.123397533492
 20
4973.593631293118
 30
0.0
  0
POINT
  5
2891
330
2450
100
AcDbEntity
  8
DEFPOINTS
 62
     0
100
AcDbPoint
 10
1447.123397533492
 20
6623.590972992804
 30
0.0
  0
POINT
  5
2892
330
2450
100
AcDbEntity
  8
DEFPOINTS
 62
     0
100
AcDbPoint
 10
747.5463090570084
 20
6623.590972992804
 30
0.0
  0
ENDBLK
  5
245B
330
2450
100
AcDbEntity
  8
0
100
AcDbBlockEnd
  0
BLOCK
  5
2466
330
245C
100
AcDbEntity
  8
0
100
AcDbBlockBegin
  2
*D15
 70
     1
 10
0.0
 20
0.0
 30
0.0
  3
*D15
  1

  0
LINE
  5
2881
330
245C
100
AcDbEntity
  8
QUOTA
 62
     0
370
    -2
100
AcDbLine
 10
1447.123397533492
 20
6623.590972992804
 30
0.0
 11
893.7013487995631
 21
6623.590972992804
 31
0.0
  0
LINE
  5
2882
330
245C
100
AcDbEntity
  8
QUOTA
 62
     0
370
    -2
100
AcDbLine
 10
1078.123397533492
 20
5267.565683268866
 30
0.0
 11
893.7013487995628
 21
5267.565683268866
 31
0.0
  0
LINE
  5
2883
330
245C
100
AcDbEntity
  8
QUOTA
 62
     0
370
    -2
100
AcDbLine
 10
920.7013487995631
 20
6596.590972992803
 30
0.0
 11
920.7013487995627
 21
5294.565683268866
 31
0.0
  0
SOLID
  5
2884
330
245C
100
AcDbEntity
  8
QUOTA
 62
     0
100
AcDbTrace
 10
916.2013487995631
 20
6596.590972992803
 30
0.0
 11
925.2013487995631
 21
6596.590972992803
 31
0.0
 12
920.7013487995631
 22
6623.590972992804
 32
0.0
 13
920.7013487995631
 23
6623.590972992804
 33
0.0
  0
SOLID
  5
2885
330
245C
100
AcDbEntity
  8
QUOTA
 62
     0
100
AcDbTrace
 10
916.2013487995627
 20
5294.565683268866
 30
0.0
 11
925.2013487995627
 21
5294.565683268866
 31
0.0
 12
920.7013487995627
 22
5267.565683268866
 32
0.0
 13
920.7013487995627
 23
5267.565683268866
 33
0.0
  0
MTEXT
  5
2886
330
245C
100
AcDbEntity
  8
QUOTA
 62
     0
100
AcDbMText
 10
893.7013487995619
 20
5945.578328130835
 30
0.0
 40
27.0
 41
0.0
 71
     5
 72
     1
  1
\A1;1356 mm
 11
0.0000000000000001
 21
1.0
 31
0.0
 73
     1
 44
1.0
1001
ACAD
1000
MTEXTBEGIN
1070
    73
1070
     1
1070
    44
1040
1.0
1070
    74
1070
     0
1000
MTEXTEND
  0
POINT
  5
2887
330
245C
100
AcDbEntity
  8
DEFPOINTS
 62
     0
100
AcDbPoint
 10
1456.123397533493
 20
6623.590972992804
 30
0.0
  0
POINT
  5
2888
330
245C
100
AcDbEntity
  8
DEFPOINTS
 62
     0
100
AcDbPoint
 10
1087.123397533492
 20
5267.565683268866
 30
0.0
  0
POINT
  5
2889
330
245C
100
AcDbEntity
  8
DEFPOINTS
 62
     0
100
AcDbPoint
 10
920.7013487995627
 20
5267.565683268866
 30
0.0
  0
ENDBLK
  5
2467
330
245C
100
AcDbEntity
  8
0
100
AcDbBlockEnd
  0
BLOCK
  5
247E
330
2474
100
AcDbEntity
  8
0
100
AcDbBlockBegin
  2
*D16
 70
     1
 10
0.0
 20
0.0
 30
0.0
  3
*D16
  1

  0
LINE
  5
2866
330
2474
100
AcDbEntity
  8
QUOTA
 62
     0
370
    -2
100
AcDbLine
 10
1447.123397533492
 20
4973.593631293118
 30
0.0
 11
893.7013487995628
 21
4973.593631293118
 31
0.0
  0
LINE
  5
2867
330
2474
100
AcDbEntity
  8
QUOTA
 62
     0
370
    -2
100
AcDbLine
 10
1087.123397533492
 20
5267.565683268866
 30
0.0
 11
893.7013487995628
 21
5267.565683268866
 31
0.0
  0
LINE
  5
2868
330
2474
100
AcDbEntity
  8
QUOTA
 62
     0
370
    -2
100
AcDbLine
 10
920.7013487995627
 20
5000.593631293118
 30
0.0
 11
920.7013487995627
 21
5240.565683268866
 31
0.0
  0
SOLID
  5
2869
330
2474
100
AcDbEntity
  8
QUOTA
 62
     0
100
AcDbTrace
 10
916.2013487995627
 20
5000.593631293118
 30
0.0
 11
925.2013487995627
 21
5000.593631293118
 31
0.0
 12
920.7013487995627
 22
4973.593631293118
 32
0.0
 13
920.7013487995627
 23
4973.593631293118
 33
0.0
  0
SOLID
  5
286A
330
2474
100
AcDbEntity
  8
QUOTA
 62
     0
100
AcDbTrace
 10
916.2013487995627
 20
5240.565683268866
 30
0.0
 11
925.2013487995627
 21
5240.565683268866
 31
0.0
 12
920.7013487995627
 22
5267.565683268866
 32
0.0
 13
920.7013487995627
 23
5267.565683268866
 33
0.0
  0
MTEXT
  5
286B
330
2474
100
AcDbEntity
  8
QUOTA
 62
     0
100
AcDbMText
 10
893.7013487995619
 20
5120.579657280992
 30
0.0
 40
27.0
 41
0.0
 71
     5
 72
     1
  1
\A1;294 mm
 11
0.0000000000000001
 21
1.0
 31
0.0
 73
     1
 44
1.0
1001
ACAD
1000
MTEXTBEGIN
1070
    73
1070
     1
1070
    44
1040
1.0
1070
    74
1070
     0
1000
MTEXTEND
  0
POINT
  5
286C
330
2474
100
AcDbEntity
  8
DEFPOINTS
 62
     0
100
AcDbPoint
 10
1456.123397533493
 20
4973.593631293118
 30
0.0
  0
POINT
  5
286D
330
2474
100
AcDbEntity
  8
DEFPOINTS
 62
     0
100
AcDbPoint
 10
1096.123397533492
 20
5267.565683268866
 30
0.0
  0
POINT
  5
286E
330
2474
100
AcDbEntity
  8
DEFPOINTS
 62
     0
100
AcDbPoint
 10
920.7013487995627
 20
5267.565683268866
 30
0.0
  0
ENDBLK
  5
247F
330
2474
100
AcDbEntity
  8
0
100
AcDbBlockEnd
  0
BLOCK
  5
2735
330
272B
100
AcDbEntity
  8
0
100
AcDbBlockBegin
  2
*D17
 70
     1
 10
0.0
 20
0.0
 30
0.0
  3
*D17
  1

  0
LINE
  5
289B
330
272B
100
AcDbEntity
  8
QUOTA
 62
     0
370
    -2
100
AcDbLine
 10
3596.123397533493
 20
5208.565683268866
 30
0.0
 11
3596.123397533493
 21
4535.044447137283
 31
0.0
  0
LINE
  5
289C
330
272B
100
AcDbEntity
  8
QUOTA
 62
     0
370
    -2
100
AcDbLine
 10
1096.123397533492
 20
5208.565683268869
 30
0.0
 11
1096.123397533492
 21
4535.044447137283
 31
0.0
  0
LINE
  5
289D
330
272B
100
AcDbEntity
  8
QUOTA
 62
     0
370
    -2
100
AcDbLine
 10
3569.123397533493
 20
4562.044447137284
 30
0.0
 11
1123.123397533492
 21
4562.044447137284
 31
0.0
  0
SOLID
  5
289E
330
272B
100
AcDbEntity
  8
QUOTA
 62
     0
100
AcDbTrace
 10
3569.123397533493
 20
4566.544447137284
 30
0.0
 11
3569.123397533493
 21
4557.544447137284
 31
0.0
 12
3596.123397533493
 22
4562.044447137284
 32
0.0
 13
3596.123397533493
 23
4562.044447137284
 33
0.0
  0
SOLID
  5
289F
330
272B
100
AcDbEntity
  8
QUOTA
 62
     0
100
AcDbTrace
 10
1123.123397533492
 20
4566.544447137284
 30
0.0
 11
1123.123397533492
 21
4557.544447137284
 31
0.0
 12
1096.123397533492
 22
4562.044447137284
 32
0.0
 13
1096.123397533492
 23
4562.044447137284
 33
0.0
  0
MTEXT
  5
28A0
330
272B
100
AcDbEntity
  8
QUOTA
 62
     0
100
AcDbMText
 10
2346.123397533493
 20
4589.044447137283
 30
0.0
 40
27.0
 41
0.0
 71
     5
 72
     1
  1
\A1;2500 mm
 73
     1
 44
1.0
1001
ACAD
1000
MTEXTBEGIN
1070
    73
1070
     1
1070
    44
1040
1.0
1070
    74
1070
     0
1000
MTEXTEND
  0
POINT
  5
28A1
330
272B
100
AcDbEntity
  8
DEFPOINTS
 62
     0
100
AcDbPoint
 10
3596.123397533493
 20
5217.565683268866
 30
0.0
  0
POINT
  5
28A2
330
272B
100
AcDbEntity
  8
DEFPOINTS
 62
     0
100
AcDbPoint
 10
1096.123397533492
 20
5217.565683268868
 30
0.0
  0
POINT
  5
28A3
330
272B
100
AcDbEntity
  8
DEFPOINTS
 62
     0
100
AcDbPoint
 10
1096.123397533492
 20
4562.044447137284
 30
0.0
  0
ENDBLK
  5
2736
330
272B
100
AcDbEntity
  8
0
100
AcDbBlockEnd
  0
BLOCK
  5
2942
330
2940
100
AcDbEntity
  8
0
100
AcDbBlockBegin
  2
GENAXEH
 70
     0
 10
0.0
 20
0.0
 30
0.0
  3
GENAXEH
  1

  0
LINE
  5
2941
330
2940
100
AcDbEntity
  8
0
100
AcDbLine
 10
-1.0
 20
0.0
 30
0.0
 11
1.0
 21
0.0
 31
0.0
  0
ENDBLK
  5
2943
330
2940
100
AcDbEntity
  8
0
100
AcDbBlockEnd
  0
ENDSEC
  0
SECTION
  2
ENTITIES
  0
CIRCLE
  5
20D8
330
1A
100
AcDbEntity
  8
0
 62
     0
100
AcDbCircle
 10
1980.537270315028
 20
5537.90203230767
 30
0.0
 40
6.0
  0
LINE
  5
20DA
330
1A
100
AcDbEntity
  8
COSTRUZIONE
 62
     0
100
AcDbLine
 10
1983.156663986343
 20
5513.132311552118
 30
0.0
 11
1957.64473611573
 21
5528.943116483502
 31
0.0
  0
CIRCLE
  5
20DB
330
1A
100
AcDbEntity
  8
COSTRUZIONE
 62
     0
100
AcDbCircle
 10
1980.883779939342
 20
5537.865380251302
 30
0.0
 40
20.0
  0
LINE
  5
20DC
330
1A
100
AcDbEntity
  8
COSTRUZIONE
 62
     0
100
AcDbLine
 10
1978.410597492866
 20
5557.711875372266
 30
0.0
 11
2000.747911703058
 21
5593.767141862631
 31
0.0
  0
LINE
  5
20DD
330
1A
100
AcDbEntity
  8
COSTRUZIONE
 62
     0
100
AcDbLine
 10
1975.057750591411
 20
5557.040330460996
 30
0.0
 11
2006.825371087423
 21
5608.299785386435
 31
0.0
  0
ARC
  5
20DE
330
1A
100
AcDbEntity
  8
COSTRUZIONE
 62
     0
100
AcDbCircle
 10
1980.724855510199
 20
5537.910845493594
 30
0.0
 40
25.09637090367701
100
AcDbArc
 50
94.61584905885839
 51
20.45797883068941
  0
ARC
  5
20F0
330
1A
100
AcDbEntity
  8
0
 62
     0
100
AcDbCircle
 10
1924.19197683674
 20
5691.877303103245
 30
0.0
 40
14.5
100
AcDbArc
 50
224.4532235827011
 51
166.0482608379997
  0
LINE
  5
20F2
330
1A
100
AcDbEntity
  8
0
 62
     0
100
AcDbLine
 10
1923.602998915596
 20
5646.104228424783
 30
0.0
 11
1907.713228870643
 21
5704.186583735985
 31
0.0
  0
LINE
  5
20F3
330
1A
100
AcDbEntity
  8
0
 62
     0
100
AcDbLine
 10
1893.370834772477
 20
5637.417678267859
 30
0.0
 11
1893.131663967828
 21
5682.260429333208
 31
0.0
  0
LINE
  5
20F4
330
1A
100
AcDbEntity
  8
0
 62
     0
100
AcDbLine
 10
1843.132375120057
 20
5681.993755905251
 30
0.0
 11
1843.371545924707
 21
5637.151004839902
 31
0.0
  0
LINE
  5
20F5
330
1A
100
AcDbEntity
  8
0
 62
     0
100
AcDbLine
 10
1813.946980866581
 20
5645.519373181777
 30
0.0
 11
1829.216294894586
 21
5703.767916851917
 31
0.0
  0
LINE
  5
20F7
330
1A
100
AcDbEntity
  8
0
 62
     0
100
AcDbLine
 10
1943.347782961579
 20
5708.176156764259
 30
0.0
 11
1944.414476673407
 21
5508.179001373175
 31
0.0
  0
CIRCLE
  5
20F8
330
1A
100
AcDbEntity
  8
0
 62
     0
100
AcDbCircle
 10
1590.396724489021
 20
5690.096991298203
 30
0.0
 40
13.0
  0
LINE
  5
20FA
330
1A
100
AcDbEntity
  8
0
 62
     0
100
AcDbLine
 10
1613.853671068825
 20
5687.29748274345
 30
0.0
 11
1614.263696249507
 21
5610.420804025178
 31
0.0
  0
LINE
  5
20FB
330
1A
100
AcDbEntity
  8
0
 62
     0
100
AcDbLine
 10
1634.263411788615
 20
5610.527473396359
 30
0.0
 11
1633.853386607933
 21
5687.404152114633
 31
0.0
  0
LINE
  5
20FD
330
1A
100
AcDbEntity
  8
0
 62
     0
100
AcDbLine
 10
1544.420165891241
 20
5506.045613949518
 30
0.0
 11
1544.420165891241
 21
5691.31129013549
 31
0.0
  0
CIRCLE
  5
20FE
330
1A
100
AcDbEntity
  8
0
 62
     0
100
AcDbCircle
 10
1590.396724489021
 20
5690.096991298203
 30
0.0
 40
14.5
  0
LINE
  5
20FF
330
1A
100
AcDbEntity
  8
0
 62
     0
100
AcDbLine
 10
1323.292534627367
 20
5665.777040615564
 30
0.0
 11
1339.393671088088
 21
5682.53845983353
 31
0.0
  0
CIRCLE
  5
2100
330
1A
100
AcDbEntity
  8
VITE
 62
     0
100
AcDbCircle
 10
1311.944575676733
 20
5678.343298959976
 30
0.0
 40
4.978571428571428
  0
CIRCLE
  5
2103
330
1A
100
AcDbEntity
  8
VITE
 62
     0
100
AcDbCircle
 10
1311.944575676733
 20
5678.343298959976
 30
0.0
 40
5.75
  0
CIRCLE
  5
2104
330
1A
100
AcDbEntity
  8
VITE
 62
     0
100
AcDbCircle
 10
1311.944575676733
 20
5678.343298959976
 30
0.0
 40
6.5
  0
CIRCLE
  5
2105
330
1A
100
AcDbEntity
  8
VITE
 62
     0
100
AcDbCircle
 10
1311.944575676733
 20
5678.343298959976
 30
0.0
 40
6.5
  0
LWPOLYLINE
  5
2106
330
1A
100
AcDbEntity
  8
VITE
 62
     0
100
AcDbPolyline
 90
        6
 70
     1
 43
0.0
 10
1319.026417826827
 20
5680.829429506525
 10
1313.332444541345
 20
5685.719419440825
 10
1306.25060239125
 20
5683.233288894276
 10
1304.862733526639
 20
5675.857168413427
 10
1310.556706812121
 20
5670.967178479129
 10
1317.638548962216
 20
5673.453309025678
  0
CIRCLE
  5
2107
330
1A
100
AcDbEntity
  8
0
 62
     0
100
AcDbCircle
 10
1311.939817967388
 20
5678.342657403838
 30
0.0
 40
13.0
  0
CIRCLE
  5
2108
330
1A
100
AcDbEntity
  8
0
 62
     0
100
AcDbCircle
 10
1311.939817967388
 20
5678.342657403838
 30
0.0
 40
11.0
  0
ARC
  5
2109
330
1A
100
AcDbEntity
  8
0
 62
     0
100
AcDbCircle
 10
1311.944296412748
 20
5678.341814752895
 30
0.0
 40
17.08566650733891
100
AcDbArc
 50
131.708729201151
 51
311.708729201151
  0
CIRCLE
  5
210A
330
1A
100
AcDbEntity
  8
0
 62
     0
100
AcDbCircle
 10
1311.939817967388
 20
5678.342657403838
 30
0.0
 40
14.5
  0
ARC
  5
210E
330
1A
100
AcDbEntity
  8
0
 62
     0
100
AcDbCircle
 10
1751.167477199679
 20
5598.816872795464
 30
0.0
 40
90.0
100
AcDbArc
 50
43.06548357822288
 51
314.6691401962861
  0
LINE
  5
210F
330
1A
100
AcDbEntity
  8
0
 62
     0
100
AcDbLine
 39
0.1234
 10
1674.620154250339
 20
5374.835836797649
 30
0.0
 11
1674.620154250339
 21
5504.866675785641
 31
0.0
  0
LINE
  5
2110
330
1A
100
AcDbEntity
  8
0
 62
     0
100
AcDbLine
 39
0.1234
 10
1674.548699207285
 20
5374.814330898483
 30
0.0
 11
1544.596343573578
 21
5374.814330898483
 31
0.0
  0
LINE
  5
2139
330
1A
100
AcDbEntity
  8
0
 62
     0
100
AcDbLine
 10
1944.414476673407
 20
5508.179001373175
 30
0.0
 11
1544.420165891241
 21
5506.045613949518
 31
0.0
  0
LINE
  5
213B
330
1A
100
AcDbEntity
  8
0
 62
     0
100
AcDbLine
 10
1544.142966986779
 20
5505.660018901691
 30
0.0
 11
1544.142966986779
 21
5374.555771568297
 31
0.0
  0
LINE
  5
213D
330
1A
100
AcDbEntity
  8
0
 62
     0
100
AcDbLine
 10
1634.802918489392
 20
5509.373970499285
 30
0.0
 11
1634.431073802823
 21
5579.092089895826
 31
0.0
  0
LINE
  5
213E
330
1A
100
AcDbEntity
  8
0
 62
     0
100
AcDbLine
 10
1614.431358263715
 20
5578.985420524642
 30
0.0
 11
1614.803202950283
 21
5509.267301128102
 31
0.0
  0
CIRCLE
  5
2140
330
1A
100
AcDbEntity
  8
0
 62
     0
100
AcDbCircle
 10
1566.318517081637
 20
5525.162680019974
 30
0.0
 40
11.0
  0
CIRCLE
  5
2141
330
1A
100
AcDbEntity
  8
VITE
 62
     0
100
AcDbCircle
 10
1566.323065993155
 20
5525.164214554592
 30
0.0
 40
6.5
  0
CIRCLE
  5
2142
330
1A
100
AcDbEntity
  8
VITE
 62
     0
100
AcDbCircle
 10
1566.323065993155
 20
5525.164214554592
 30
0.0
 40
6.5
  0
CIRCLE
  5
2143
330
1A
100
AcDbEntity
  8
VITE
 62
     0
100
AcDbCircle
 10
1566.323065993155
 20
5525.164214554592
 30
0.0
 40
5.75
  0
CIRCLE
  5
2144
330
1A
100
AcDbEntity
  8
VITE
 62
     0
100
AcDbCircle
 10
1566.323065993155
 20
5525.164214554592
 30
0.0
 40
4.978571428571428
  0
LWPOLYLINE
  5
2145
330
1A
100
AcDbEntity
  8
VITE
 62
     0
100
AcDbPolyline
 90
        6
 70
     1
 43
0.0
 10
1572.802958226561
 20
5528.951605474047
 10
1566.283035359547
 20
5532.669661302234
 10
1559.80314312614
 20
5528.882270382778
 10
1559.843173759749
 20
5521.376823635134
 10
1566.363096626763
 20
5517.658767806948
 10
1572.842988860169
 20
5521.446158726404
  0
CIRCLE
  5
2146
330
1A
100
AcDbEntity
  8
0
 62
     0
100
AcDbCircle
 10
1566.318517081637
 20
5525.162680019974
 30
0.0
 40
14.5
  0
CIRCLE
  5
2147
330
1A
100
AcDbEntity
  8
0
 62
     0
100
AcDbCircle
 10
1566.318517081637
 20
5525.162680019974
 30
0.0
 40
13.0
  0
LINE
  5
214B
330
1A
100
AcDbEntity
  8
0
 62
     0
100
AcDbLine
 10
1614.803202950283
 20
5509.267301128102
 30
0.0
 11
1634.802918489392
 21
5509.373970499285
 31
0.0
  0
LINE
  5
214C
330
1A
100
AcDbEntity
  8
0
 62
     0
100
AcDbLine
 10
1625.714057993233
 20
5595.440665772311
 30
0.0
 11
1586.757963290397
 21
5595.232891710845
 31
0.0
  0
LINE
  5
214D
330
1A
100
AcDbEntity
  8
0
 62
     0
100
AcDbLine
 10
1643.21413383795
 20
5579.138934736652
 30
0.0
 11
1586.845301506057
 21
5578.838289065597
 31
0.0
  0
LINE
  5
214E
330
1A
100
AcDbEntity
  8
0
 62
     0
100
AcDbLine
 10
1586.845301506057
 20
5578.838289065597
 30
0.0
 11
1586.758078380617
 21
5595.191977832024
 31
0.0
  0
LINE
  5
214F
330
1A
100
AcDbEntity
  8
0
 62
     0
100
AcDbLine
 10
1633.952394586537
 20
5610.525814572298
 30
0.0
 11
1643.046471823742
 21
5610.574318237187
 31
0.0
  0
CIRCLE
  5
2150
330
1A
100
AcDbEntity
  8
0
 62
     0
100
AcDbCircle
 10
1616.782141047242
 20
5602.932329792054
 30
0.0
 40
5.306069902824674
  0
LINE
  5
2151
330
1A
100
AcDbEntity
  8
0
 62
     0
100
AcDbLine
 10
1608.99642271296
 20
5610.377039400978
 30
0.0
 11
1609.076559807012
 21
5595.351928936723
 31
0.0
  0
LINE
  5
2152
330
1A
100
AcDbEntity
  8
0
 62
     0
100
AcDbLine
 10
1609.029851856534
 20
5610.392889083628
 30
0.0
 11
1635.507480596924
 21
5610.534108692609
 31
0.0
  0
LINE
  5
2153
330
1A
100
AcDbEntity
  8
0
 62
     0
100
AcDbLine
 10
1643.052000493138
 20
5610.574347724591
 30
0.0
 11
1643.219662507348
 21
5579.138964224057
 31
0.0
  0
LINE
  5
2154
330
1A
100
AcDbEntity
  8
0
 62
     0
100
AcDbLine
 10
1625.800692739946
 20
5579.197293651044
 30
0.0
 11
1625.714057993233
 21
5595.440665772311
 31
0.0
  0
ARC
  5
2159
330
1A
100
AcDbEntity
  8
0
 62
     0
100
AcDbCircle
 10
1826.302797677677
 20
5522.66175720714
 30
0.0
 40
12.0
100
AcDbArc
 50
180.3055866873889
 51
270.3055866873889
  0
LINE
  5
215B
330
1A
100
AcDbEntity
  8
0
 62
     0
100
AcDbLine
 10
1814.302968354213
 20
5522.59775558443
 30
0.0
 11
1813.647002977224
 21
5645.586396070504
 31
0.0
  0
CIRCLE
  5
215C
330
1A
100
AcDbEntity
  8
0
 62
     0
100
AcDbCircle
 10
1751.167477199679
 20
5598.816872795464
 30
0.0
 40
25.0
  0
CIRCLE
  5
215D
330
1A
100
AcDbEntity
  8
0
 62
     0
100
AcDbCircle
 10
1751.167477199679
 20
5598.816872795464
 30
0.0
 40
15.0
  0
LINE
  5
215F
330
1A
100
AcDbEntity
  8
0
 62
     0
100
AcDbLine
 10
1923.602425005545
 20
5646.21183230049
 30
0.0
 11
1924.258598300062
 21
5523.184208820797
 31
0.0
  0
LINE
  5
2160
330
1A
100
AcDbEntity
  8
0
 62
     0
100
AcDbLine
 10
1912.322770599306
 20
5511.120377874624
 30
0.0
 11
1826.366799300387
 21
5510.661927883675
 31
0.0
  0
ARC
  5
2161
330
1A
100
AcDbEntity
  8
0
 62
     0
100
AcDbCircle
 10
1912.258768976597
 20
5523.120207198088
 30
0.0
 40
12.0
100
AcDbArc
 50
270.3055866873889
 51
0.3055866874019756
  0
CIRCLE
  5
2162
330
1A
100
AcDbEntity
  8
COSTRUZIONE
 62
     0
100
AcDbCircle
 10
1965.706212173159
 20
5547.26704071036
 30
0.0
 40
1.5
  0
LINE
  5
2163
330
1A
100
AcDbEntity
  8
COSTRUZIONE
 62
     0
100
AcDbLine
 10
1957.64473611573
 20
5528.943116483502
 30
0.0
 11
1961.151809884084
 21
5534.602044881104
 31
0.0
  0
LINE
  5
2164
330
1A
100
AcDbEntity
  8
0
 62
     0
100
AcDbLine
 10
1981.017786608054
 20
5512.740124286477
 30
0.0
 11
1944.650261444813
 21
5512.740124286477
 31
0.0
  0
LINE
  5
2166
330
1A
100
AcDbEntity
  8
0
 62
     0
100
AcDbLine
 10
1873.126804093615
 20
5628.582880491999
 30
0.0
 11
1873.27837138362
 21
5600.165138345994
 31
0.0
  0
LINE
  5
2167
330
1A
100
AcDbEntity
  8
0
 62
     0
100
AcDbLine
 10
1865.048264849698
 20
5628.539793244106
 30
0.0
 11
1865.197218851237
 21
5600.612023293304
 31
0.0
  0
LINE
  5
2168
330
1A
100
AcDbEntity
  8
0
 62
     0
100
AcDbLine
 10
1881.33902444453
 20
5592.05526973069
 30
0.0
 11
1893.426668670304
 21
5637.298241175545
 31
0.0
  0
LINE
  5
2169
330
1A
100
AcDbEntity
  8
0
 62
     0
100
AcDbLine
 10
1855.477143279515
 20
5592.861924887768
 30
0.0
 11
1843.413658213551
 21
5637.031494562776
 31
0.0
  0
ARC
  5
216A
330
1A
100
AcDbEntity
  8
0
 62
     0
100
AcDbCircle
 10
1868.649433114068
 20
5600.196408963831
 30
0.0
 40
15.07660028479595
100
AcDbArc
 50
209.1095686839588
 51
227.3828301462692
  0
ARC
  5
216B
330
1A
100
AcDbEntity
  8
0
 62
     0
100
AcDbCircle
 10
1868.649433114068
 20
5600.196408963831
 30
0.0
 40
15.07660028479595
100
AcDbArc
 50
317.0874932552803
 51
327.3173767165729
  0
CIRCLE
  5
216C
330
1A
100
AcDbEntity
  8
0
 62
     0
100
AcDbCircle
 10
1869.168963709802
 20
5590.343730241651
 30
0.0
 40
10.77928353839161
  0
CIRCLE
  5
216D
330
1A
100
AcDbEntity
  8
0
 62
     0
100
AcDbCircle
 10
1868.850149811919
 20
5650.118970283795
 30
0.0
 40
21.92606435362723
  0
CIRCLE
  5
216E
330
1A
100
AcDbEntity
  8
0
 62
     0
100
AcDbCircle
 10
1868.850149811919
 20
5650.118970283795
 30
0.0
 40
10.0
  0
LINE
  5
216F
330
1A
100
AcDbEntity
  8
0
 62
     0
100
AcDbLine
 10
1978.7052338832
 20
5562.925820229113
 30
0.0
 11
1944.650261444813
 21
5562.925820229113
 31
0.0
  0
LINE
  5
2175
330
1A
100
AcDbEntity
  8
0
 62
     0
100
AcDbLine
 10
1302.210614583249
 20
5692.58735574094
 30
0.0
 11
1320.893291288882
 21
5705.352840107496
 31
0.0
  0
LINE
  5
2176
330
1A
100
AcDbEntity
  8
0
 62
     0
100
AcDbLine
 10
1302.210614583249
 20
5692.58735574094
 30
0.0
 11
1300.268382008447
 21
5690.917705290882
 31
0.0
  0
LINE
  5
2177
330
1A
100
AcDbEntity
  8
0
 62
     0
100
AcDbLine
 10
1683.429614145581
 20
5760.958190982462
 30
0.0
 11
1577.517499296846
 21
5780.886299120796
 31
0.0
  0
LINE
  5
2178
330
1A
100
AcDbEntity
  8
0
 62
     0
100
AcDbLine
 10
1537.220809396403
 20
5921.479501068476
 30
0.0
 11
1709.557835720784
 21
5922.398668253308
 31
0.0
  0
LINE
  5
217A
330
1A
100
AcDbEntity
  8
0
 62
     0
100
AcDbLine
 10
1674.272045601179
 20
5712.288370210854
 30
0.0
 11
1568.359930752444
 21
5732.216478349187
 31
0.0
  0
LINE
  5
217C
330
1A
100
AcDbEntity
  8
0
 62
     0
100
AcDbLine
 10
1947.05497389135
 20
5953.665796486387
 30
0.0
 11
1537.06080533963
 21
5951.479074377139
 31
0.0
  0
LINE
  5
217D
330
1A
100
AcDbEntity
  8
0
 62
     0
100
AcDbLine
 10
1555.020457066444
 20
5706.104995722725
 30
0.0
 11
1943.347782961579
 21
5708.176156764259
 31
0.0
  0
HATCH
  5
217E
330
1A
100
AcDbEntity
  8
0
100
AcDbHatch
 10
0.0
 20
0.0
 30
0.0
210
0.0
220
0.0
230
1.0
  2
AR-HBONE
 70
     0
 71
     0
 91
        1
 92
        7
 72
     1
 73
     1
 93
        4
 10
1494.172607898492
 20
5910.229984178376
 42
-0.0338544831654684
 10
1510.95727112841
 20
5901.461989842204
 42
0.0
 10
1510.774981549915
 20
5935.639933099822
 42
0.0
 10
1494.170156451645
 20
5935.551370527601
 42
0.0
 97
        0
 75
     0
 76
     1
 52
0.0
 41
1.0
 77
     0
 78
     2
 53
45.0
 43
-66.33339598788371
 44
4192.655314272047
 45
0.0000000000000004
 46
5.656854249492379
 79
     2
 49
12.0
 49
-4.0
 53
135.0
 43
-63.5049688628842
 44
4195.483741397047
 45
0.0000000000000004
 46
5.656854249492379
 79
     2
 49
12.0
 49
-4.0
 47
0.3872357487056556
 98
        1
 10
1499.640080715189
 20
5924.160378447513
  0
LINE
  5
217F
330
1A
100
AcDbEntity
  8
0
 62
     0
100
AcDbLine
 10
1512.736332162919
 20
5900.275968211762
 30
0.0
 11
1517.39895420117
 21
5919.103977632215
 31
0.0
  0
LINE
  5
2180
330
1A
100
AcDbEntity
  8
0
 62
     0
100
AcDbLine
 10
1510.536335281195
 20
5980.38433757083
 30
0.0
 11
1510.958618962971
 21
5901.209280863817
 31
0.0
1001
ACAD
1000
ASC_BOUNDS
1002
{
1070
    19
1005
0
1002
}
  0
CIRCLE
  5
2182
330
1A
100
AcDbEntity
  8
0
 62
     0
100
AcDbCircle
 10
1437.891487944104
 20
5782.040922489479
 30
0.0
 40
18.0
  0
CIRCLE
  5
2183
330
1A
100
AcDbEntity
  8
0
 62
     0
100
AcDbCircle
 10
1437.891487944104
 20
5782.040922489479
 30
0.0
 40
10.0
  0
CIRCLE
  5
2186
330
1A
100
AcDbEntity
  8
VITE
 62
     0
100
AcDbCircle
 10
1590.401273400539
 20
5690.09852583282
 30
0.0
 40
4.978571428571428
  0
LWPOLYLINE
  5
2187
330
1A
100
AcDbEntity
  8
VITE
 62
     0
100
AcDbPolyline
 90
        6
 70
     1
 43
0.0
 10
1596.881165633946
 20
5693.885916752277
 10
1590.361242766931
 20
5697.603972580464
 10
1583.881350533524
 20
5693.816581661007
 10
1583.921381167133
 20
5686.311134913364
 10
1590.441304034148
 20
5682.593079085177
 10
1596.921196267553
 20
5686.380470004633
  0
CIRCLE
  5
2188
330
1A
100
AcDbEntity
  8
VITE
 62
     0
100
AcDbCircle
 10
1590.401273400539
 20
5690.09852583282
 30
0.0
 40
5.75
  0
CIRCLE
  5
2189
330
1A
100
AcDbEntity
  8
VITE
 62
     0
100
AcDbCircle
 10
1590.401273400539
 20
5690.09852583282
 30
0.0
 40
6.5
  0
CIRCLE
  5
218A
330
1A
100
AcDbEntity
  8
VITE
 62
     0
100
AcDbCircle
 10
1590.401273400539
 20
5690.09852583282
 30
0.0
 40
6.5
  0
CIRCLE
  5
218B
330
1A
100
AcDbEntity
  8
0
 62
     0
100
AcDbCircle
 10
1590.396724489021
 20
5690.096991298203
 30
0.0
 40
11.0
  0
LINE
  5
218D
330
1A
100
AcDbEntity
  8
0
 62
     0
100
AcDbLine
 10
1633.853386607933
 20
5687.404152114633
 30
0.0
 11
1613.853671068825
 21
5687.29748274345
 31
0.0
  0
HATCH
  5
218E
330
1A
100
AcDbEntity
  8
0
100
AcDbHatch
 10
0.0
 20
0.0
 30
0.0
210
0.0
220
0.0
230
1.0
  2
AR-HBONE
 70
     0
 71
     0
 91
        1
 92
        7
 72
     0
 73
     1
 93
        5
 10
1510.539711451382
 20
5979.751330714134
 10
1510.343675301445
 20
5980.508243307979
 10
1494.165812382226
 20
5980.421957957504
 10
1494.170156451645
 20
5935.551370527601
 10
1510.774981549915
 20
5935.639933099822
 97
        0
 75
     0
 76
     1
 52
0.0
 41
1.0
 77
     0
 78
     2
 53
45.0
 43
-66.33339598788371
 44
4192.655314272047
 45
0.0000000000000004
 46
5.656854249492379
 79
     2
 49
12.0
 49
-4.0
 53
135.0
 43
-63.5049688628842
 44
4195.483741397047
 45
0.0000000000000004
 46
5.656854249492379
 79
     2
 49
12.0
 49
-4.0
 47
0.3872357487056556
 98
        1
 10
1506.616406012361
 20
5947.007286347259
  0
LINE
  5
218F
330
1A
100
AcDbEntity
  8
0
 62
     0
100
AcDbLine
 10
1510.343675301445
 20
5980.508243307979
 30
0.0
 11
1517.212911922315
 21
5953.985524360049
 31
0.0
1001
ACAD
1000
ASC_BOUNDS
1002
{
1070
    19
1005
0
1002
}
  0
LINE
  5
2190
330
1A
100
AcDbEntity
  8
0
 62
     0
100
AcDbLine
 10
1537.091695237957
 20
5954.150528144372
 30
0.0
 11
1517.091979698849
 21
5954.043858773189
 31
0.0
  0
LINE
  5
2191
330
1A
100
AcDbEntity
  8
0
 62
     0
100
AcDbLine
 10
1537.278366637527
 20
5919.151025950931
 30
0.0
 11
1517.278651098419
 21
5919.044356579749
 31
0.0
  0
LINE
  5
2192
330
1A
100
AcDbEntity
  8
0
 62
     0
100
AcDbLine
 10
1517.091979698849
 20
5954.043858773189
 30
0.0
 11
1517.185315398634
 21
5936.544107676468
 31
0.0
  0
LINE
  5
2193
330
1A
100
AcDbEntity
  8
0
 62
     0
100
AcDbLine
 10
1517.278651098419
 20
5919.044356579749
 30
0.0
 11
1517.185315398634
 21
5936.544107676468
 31
0.0
  0
LINE
  5
2194
330
1A
100
AcDbEntity
  8
0
 62
     0
100
AcDbLine
 10
1537.185030937742
 20
5936.650777047651
 30
0.0
 11
1537.091695237957
 21
5954.150528144372
 31
0.0
  0
LINE
  5
2195
330
1A
100
AcDbEntity
  8
0
 62
     0
100
AcDbLine
 10
1537.185030937742
 20
5936.650777047651
 30
0.0
 11
1537.278366637527
 21
5919.151025950931
 31
0.0
  0
LINE
  5
2196
330
1A
100
AcDbEntity
  8
0
 62
     0
100
AcDbLine
 10
1494.165812382226
 20
5980.421957957504
 30
0.0
 11
1510.343675301445
 21
5980.508243307979
 31
0.0
1001
ACAD
1000
ASC_BOUNDS
1002
{
1070
    19
1005
0
1002
}
  0
LINE
  5
2197
330
1A
100
AcDbEntity
  8
0
 62
     0
100
AcDbLine
 10
1795.475410667984
 20
5923.039786553603
 30
0.0
 11
1795.635414724758
 21
5893.04021324494
 31
0.0
  0
LINE
  5
2198
330
1A
100
AcDbEntity
  8
0
 62
     0
100
AcDbLine
 10
1705.636694798771
 20
5892.560201074618
 30
0.0
 11
1705.476690741997
 21
5922.55977438328
 31
0.0
  0
CIRCLE
  5
219A
330
1A
100
AcDbEntity
  8
0
 62
     0
100
AcDbCircle
 10
1750.896908745518
 20
5907.54090591254
 30
0.0
 40
34.0
  0
CIRCLE
  5
219B
330
1A
100
AcDbEntity
  8
0
 62
     0
100
AcDbCircle
 10
1750.896908745518
 20
5907.54090591254
 30
0.0
 40
44.0
  0
LINE
  5
219C
330
1A
100
AcDbEntity
  8
0
 62
     0
100
AcDbLine
 10
1770.679605751318
 20
5855.944819155726
 30
0.0
 11
1771.406470571356
 21
5719.663059219115
 31
0.0
  0
LINE
  5
219D
330
1A
100
AcDbEntity
  8
0
 62
     0
100
AcDbLine
 10
1719.62205838423
 20
5732.325386665862
 30
0.0
 11
1718.928707471541
 21
5862.323537670066
 31
0.0
  0
LINE
  5
219E
330
1A
100
AcDbEntity
  8
0
 62
     0
100
AcDbLine
 10
1731.757996457872
 20
5719.451592321309
 30
0.0
 11
1731.031131637834
 21
5855.73335225792
 31
0.0
  0
LINE
  5
219F
330
1A
100
AcDbEntity
  8
0
 62
     0
100
AcDbLine
 10
1719.755395169989
 20
5707.325728783644
 30
0.0
 11
1731.82232702532
 21
5707.390088300687
 31
0.0
  0
ARC
  5
21A0
330
1A
100
AcDbEntity
  8
0
 62
     0
100
AcDbCircle
 10
1678.785843369461
 20
5736.277896176882
 30
0.0
 40
25.11337410049601
100
AcDbArc
 50
349.3439829561755
 51
79.34398295621635
  0
LINE
  5
21A1
330
1A
100
AcDbEntity
  8
0
 62
     0
100
AcDbLine
 10
1703.74203844312
 20
5737.03798459288
 30
0.0
 11
1703.902042499893
 21
5707.038411284218
 31
0.0
  0
LWPOLYLINE
  5
21A2
330
1A
100
AcDbEntity
  8
VITE
 62
     0
100
AcDbPolyline
 90
        6
 70
     1
 43
0.0
 10
1695.686710618204
 20
5746.648661973672
 10
1678.634604658321
 20
5756.372807985854
 10
1661.68719420172
 20
5746.467324042662
 10
1661.791889705004
 20
5726.837694087287
 10
1678.843995664888
 20
5717.113548075105
 10
1695.791406121488
 20
5727.019032018298
  0
CIRCLE
  5
21A3
330
1A
100
AcDbEntity
  8
VITE
 62
     0
100
AcDbCircle
 10
1678.739300161604
 20
5736.743178030479
 30
0.0
 40
17.0
  0
LINE
  5
21A5
330
1A
100
AcDbEntity
  8
0
 62
     0
100
AcDbLine
 10
1703.902042499893
 20
5707.038411284218
 30
0.0
 11
1653.902753652123
 21
5706.771737856261
 31
0.0
  0
ARC
  5
21A6
330
1A
100
AcDbEntity
  8
0
 62
     0
100
AcDbCircle
 10
1678.915816377298
 20
5736.968665016433
 30
0.0
 40
25.11337410049601
100
AcDbArc
 50
259.3439829562163
 51
349.3439829561755
  0
LINE
  5
21A7
330
1A
100
AcDbEntity
  8
0
 62
     0
100
AcDbLine
 10
1653.87534225835
 20
5711.911170777963
 30
0.0
 11
1653.852846210429
 21
5716.129012827536
 31
0.0
  0
LINE
  5
21A8
330
1A
100
AcDbEntity
  8
0
 62
     0
100
AcDbLine
 10
1653.902753652123
 20
5706.771737856261
 30
0.0
 11
1653.87534225835
 21
5711.911170777963
 31
0.0
  0
LINE
  5
21A9
330
1A
100
AcDbEntity
  8
0
 62
     0
100
AcDbLine
 10
1719.62205845601
 20
5732.325373207528
 30
0.0
 11
1719.755395169989
 21
5707.325728783644
 31
0.0
  0
LINE
  5
21AA
330
1A
100
AcDbEntity
  8
0
 62
     0
100
AcDbLine
 10
1783.470705622013
 20
5707.651464926555
 30
0.0
 11
1783.259086763078
 21
5747.328430624342
 31
0.0
  0
LINE
  5
21AB
330
1A
100
AcDbEntity
  8
0
 62
     0
100
AcDbLine
 10
1771.470876298548
 20
5707.587463303845
 30
0.0
 11
1783.470705622013
 21
5707.651464926555
 31
0.0
  0
LINE
  5
21AC
330
1A
100
AcDbEntity
  8
0
 62
     0
100
AcDbLine
 10
1771.406470571356
 20
5719.663059219115
 30
0.0
 11
1771.470876298548
 21
5707.587463303845
 31
0.0
  0
LINE
  5
21AD
330
1A
100
AcDbEntity
  8
0
 62
     0
100
AcDbLine
 10
1731.82232702532
 20
5707.390088300687
 30
0.0
 11
1731.725793522496
 21
5725.489403737276
 31
0.0
  0
LINE
  5
21AE
330
1A
100
AcDbEntity
  8
0
 62
     0
100
AcDbLine
 10
1771.406470571356
 20
5719.663059219115
 30
0.0
 11
1731.757996457872
 21
5719.451592321309
 31
0.0
  0
LINE
  5
21AF
330
1A
100
AcDbEntity
  8
0
 62
     0
100
AcDbLine
 10
1783.259086763078
 20
5747.328430624342
 30
0.0
 11
1771.259257439613
 21
5747.264429001632
 31
0.0
  0
LINE
  5
21B1
330
1A
100
AcDbEntity
  8
0
 62
     0
100
AcDbLine
 10
1709.501382500754
 20
5892.580813558139
 30
0.0
 11
1705.636694798771
 21
5892.560201074618
 31
0.0
  0
LINE
  5
21B2
330
1A
100
AcDbEntity
  8
0
 62
     0
100
AcDbLine
 10
1718.92739649957
 20
5862.569335186503
 30
0.0
 11
1730.994328354899
 21
5862.633694703546
 31
0.0
  0
LINE
  5
21B3
330
1A
100
AcDbEntity
  8
0
 62
     0
100
AcDbLine
 10
1731.031131637835
 20
5855.733352257916
 30
0.0
 11
1730.957525071963
 21
5869.534037149179
 31
0.0
  0
LINE
  5
21B4
330
1A
100
AcDbEntity
  8
0
 62
     0
100
AcDbLine
 10
1770.679605751318
 20
5855.944819155726
 30
0.0
 11
1770.615200024126
 21
5868.020415070993
 31
0.0
  0
LINE
  5
21B5
330
1A
100
AcDbEntity
  8
0
 62
     0
100
AcDbLine
 10
1795.635414724758
 20
5893.04021324494
 30
0.0
 11
1792.030559869087
 21
5893.020986591447
 31
0.0
  0
LINE
  5
21B7
330
1A
100
AcDbEntity
  8
0
 62
     0
100
AcDbLine
 10
1829.153622755698
 20
5703.679536617008
 30
0.0
 11
1907.692313650016
 21
5704.098426213455
 31
0.0
  0
LINE
  5
21B8
330
1A
100
AcDbEntity
  8
0
 62
     0
100
AcDbLine
 10
1893.131663967828
 20
5682.260429333208
 30
0.0
 11
1843.132375120057
 21
5681.993755905251
 31
0.0
  0
LINE
  5
21B9
330
1A
100
AcDbEntity
  8
ASSE
 62
     0
100
AcDbLine
 10
1931.696419075424
 20
5691.918838652057
 30
0.0
 11
1916.696632421092
 21
5691.838836623668
 31
0.0
  0
CIRCLE
  5
21BA
330
1A
100
AcDbEntity
  8
VITE
 62
     0
100
AcDbCircle
 10
1924.196525748258
 20
5691.878837637863
 30
0.0
 40
5.75
  0
CIRCLE
  5
21BB
330
1A
100
AcDbEntity
  8
VITE
 62
     0
100
AcDbCircle
 10
1924.196525748258
 20
5691.878837637863
 30
0.0
 40
6.5
  0
CIRCLE
  5
21BC
330
1A
100
AcDbEntity
  8
VITE
 62
     0
100
AcDbCircle
 10
1924.196525748258
 20
5691.878837637863
 30
0.0
 40
6.5
  0
LWPOLYLINE
  5
21BD
330
1A
100
AcDbEntity
  8
VITE
 62
     0
100
AcDbPolyline
 90
        6
 70
     1
 43
0.0
 10
1930.676417981663
 20
5695.666228557318
 10
1924.156495114649
 20
5699.384284385505
 10
1917.676602881243
 20
5695.596893466049
 10
1917.716633514851
 20
5688.091446718407
 10
1924.236556381866
 20
5684.373390890219
 10
1930.716448615271
 20
5688.160781809674
  0
CIRCLE
  5
21BE
330
1A
100
AcDbEntity
  8
0
 62
     0
100
AcDbCircle
 10
1924.19197683674
 20
5691.877303103245
 30
0.0
 40
11.0
  0
ARC
  5
21BF
330
1A
100
AcDbEntity
  8
0
 62
     0
100
AcDbCircle
 10
1924.19197683674
 20
5691.877303103245
 30
0.0
 40
13.0
100
AcDbArc
 50
208.0672144217018
 51
181.6856592318067
  0
CIRCLE
  5
21C0
330
1A
100
AcDbEntity
  8
VITE
 62
     0
100
AcDbCircle
 10
1924.196525748258
 20
5691.878837637863
 30
0.0
 40
4.978571428571428
  0
LINE
  5
21C1
330
1A
100
AcDbEntity
  8
ASSE
 62
     0
100
AcDbLine
 10
1924.236526762451
 20
5684.378944310697
 30
0.0
 11
1924.156524734065
 21
5699.378730965029
 31
0.0
  0
LINE
  5
21C2
330
1A
100
AcDbEntity
  8
0
 62
     0
100
AcDbLine
 10
1791.871531146358
 20
5922.837692004102
 30
0.0
 11
1947.214977948124
 21
5923.666223177725
 31
0.0
  0
LINE
  5
21C3
330
1A
100
AcDbEntity
  8
0
 62
     0
100
AcDbLine
 10
1947.01716141971
 20
5923.365831837173
 30
0.0
 11
1946.857157362936
 21
5953.365405145836
 31
0.0
  0
LINE
  5
21E1
330
1A
100
AcDbEntity
  8
COSTRUZIONE
 62
     0
100
AcDbLine
 10
2085.112680271992
 20
5682.856551847208
 30
0.0
 11
2075.632050260721
 21
5667.558839297774
 31
0.0
  0
ARC
  5
21E2
330
1A
100
AcDbEntity
  8
COSTRUZIONE
 62
     0
100
AcDbCircle
 10
2076.587329541044
 20
5688.102985859789
 30
0.0
 40
20.00029388615192
100
AcDbArc
 50
268.2514904710282
 51
208.0303609500627
  0
INSERT
  5
21E3
330
1A
100
AcDbEntity
  8
SEZIONE
100
AcDbBlockReference
  2
*X12
 10
1916.879445039758
 20
5917.865635245103
 30
0.0
 50
238.2117796048058
1001
ACAD
1000
HATCH
1002
{
1070
    19
1000
AR-SAND
1040
3.0
1040
0.0
1002
}
  0
LINE
  5
21E4
330
1A
100
AcDbEntity
  8
COSTRUZIONE
 62
     0
100
AcDbLine
 10
2068.222979419634
 20
5693.693198421266
 30
0.0
 11
2051.72799553882
 21
5667.077296143016
 31
0.0
  0
LINE
  5
21EB
330
1A
100
AcDbEntity
  8
0
 62
     0
100
AcDbLine
 39
0.1234
 10
2033.607535127934
 20
5622.826095173415
 30
0.0
 11
2026.375209524346
 21
5618.946241587741
 31
0.0
  0
LINE
  5
2211
330
1A
100
AcDbEntity
  8
COSTRUZIONE
 62
     0
100
AcDbLine
 10
2009.452209204601
 20
5555.608331463717
 30
0.0
 11
2077.933746025401
 21
5666.108463204189
 31
0.0
  0
LINE
  5
2212
330
1A
100
AcDbEntity
  8
COSTRUZIONE
 62
     0
100
AcDbLine
 10
2075.616611328349
 20
5667.54448814439
 30
0.0
 11
1999.521268979499
 21
5544.758906150409
 31
0.0
  0
LINE
  5
2213
330
1A
100
AcDbEntity
  8
COSTRUZIONE
 62
     0
100
AcDbLine
 10
2017.952219338484
 20
5550.34052093904
 30
0.0
 11
2054.826893011223
 21
5609.840591876217
 31
0.0
  0
LINE
  5
2214
330
1A
100
AcDbEntity
  8
COSTRUZIONE
 62
     0
100
AcDbLine
 10
2007.134276556
 20
5557.044850927749
 30
0.0
 11
2009.452209204601
 21
5555.608331463717
 31
0.0
  0
LINE
  5
2215
330
1A
100
AcDbEntity
  8
COSTRUZIONE
 62
     0
100
AcDbLine
 10
2009.452209204601
 20
5555.608331463717
 30
0.0
 11
2009.634427398507
 21
5555.902354281647
 31
0.0
  0
LINE
  5
2216
330
1A
100
AcDbEntity
  8
COSTRUZIONE
 62
     0
100
AcDbLine
 10
2009.452209204601
 20
5555.608331463717
 30
0.0
 11
2017.952219338484
 21
5550.34052093904
 31
0.0
  0
LINE
  5
2217
330
1A
100
AcDbEntity
  8
COSTRUZIONE
 62
     0
100
AcDbLine
 10
2009.416007261622
 20
5555.503745168298
 30
0.0
 11
2000.527153001067
 21
5541.160907486613
 31
0.0
  0
LINE
  5
2218
330
1A
100
AcDbEntity
  8
COSTRUZIONE
 62
     0
100
AcDbLine
 10
1986.608566665936
 20
5518.7022172312
 30
0.0
 11
1983.156663986343
 21
5513.132311552118
 31
0.0
  0
LINE
  5
221A
330
1A
100
AcDbEntity
  8
COSTRUZIONE
 62
     0
100
AcDbLine
 10
2032.265149286766
 20
5613.263529160779
 30
0.0
 11
2038.934916356431
 21
5624.025702063016
 31
0.0
  0
LINE
  5
221B
330
1A
100
AcDbEntity
  8
COSTRUZIONE
 62
     0
100
AcDbLine
 10
2025.46514117966
 20
5617.47777758052
 30
0.0
 11
2032.134908249327
 21
5628.239950482758
 31
0.0
  0
LINE
  5
221C
330
1A
100
AcDbEntity
  8
COSTRUZIONE
 62
     0
100
AcDbLine
 10
1998.622909169588
 20
5595.084094493801
 30
0.0
 11
2038.134049525326
 21
5658.83830354361
 31
0.0
  0
CIRCLE
  5
221D
330
1A
100
AcDbEntity
  8
VITE
 62
     0
100
AcDbCircle
 10
2025.666637740487
 20
5610.209619963296
 30
0.0
 40
6.5
  0
LWPOLYLINE
  5
221E
330
1A
100
AcDbEntity
  8
VITE
 62
     0
100
AcDbPolyline
 90
        6
 70
     1
 43
0.0
 10
2025.43242493974
 20
5602.707721690372
 10
2032.046365821072
 20
5606.255836591496
 10
2032.28057862182
 20
5613.757734864419
 10
2025.900850541235
 20
5617.71151823622
 10
2019.286909659903
 20
5614.163403335097
 10
2019.052696859155
 20
5606.661505062174
  0
LINE
  5
2221
330
1A
100
AcDbEntity
  8
COSTRUZIONE
 62
     0
100
AcDbLine
 10
2018.938369995807
 20
5591.779079040451
 30
0.0
 11
2025.868134301314
 21
5602.941462346072
 31
0.0
  0
LINE
  5
2222
330
1A
100
AcDbEntity
  8
COSTRUZIONE
 62
     0
100
AcDbLine
 10
2019.06812619421
 20
5607.155710765813
 30
0.0
 11
2012.201574693121
 21
5596.076011321298
 31
0.0
  0
LINE
  5
2223
330
1A
100
AcDbEntity
  8
COSTRUZIONE
 62
     0
100
AcDbLine
 10
2000.747911703058
 20
5593.767141862631
 30
0.0
 11
1998.622909169588
 21
5595.084094493801
 31
0.0
  0
LINE
  5
2224
330
1A
100
AcDbEntity
  8
COSTRUZIONE
 62
     0
100
AcDbLine
 10
1999.979215683545
 20
5594.243534821944
 30
0.0
 11
2021.805804874182
 21
5580.716687859972
 31
0.0
  0
ARC
  5
2226
330
1A
100
AcDbEntity
  8
0
 62
     0
100
AcDbCircle
 10
2005.60725489375
 20
5593.039132285102
 30
0.0
 40
11.0
100
AcDbArc
 50
97.76153155634633
 51
198.3204874186293
  0
ARC
  5
2227
330
1A
100
AcDbEntity
  8
0
 62
     0
100
AcDbCircle
 10
2005.60725489375
 20
5593.039132285102
 30
0.0
 40
13.0
100
AcDbArc
 50
91.12502195562408
 51
204.4480527542697
  0
ARC
  5
2228
330
1A
100
AcDbEntity
  8
COSTRUZIONE
 62
     0
100
AcDbCircle
 10
2015.781014657097
 20
5594.258420504825
 30
0.0
 40
4.014477155476527
100
AcDbArc
 50
148.2117796048015
 51
328.2117796048016
  0
LINE
  5
2229
330
1A
100
AcDbEntity
  8
VITE
 62
     0
100
AcDbLine
 10
2062.131975492734
 20
5601.858708354704
 30
0.0
 11
2062.481873221179
 21
5600.368290139087
 31
0.0
  0
LINE
  5
222A
330
1A
100
AcDbEntity
  8
FILETTO
 62
     0
100
AcDbLine
 10
2058.208634514471
 20
5603.01659425627
 30
0.0
 11
2061.561715249149
 21
5600.938550382673
 31
0.0
  0
LINE
  5
222B
330
1A
100
AcDbEntity
  8
VITE
 62
     0
100
AcDbLine
 10
2053.717460597734
 20
5595.769745944915
 30
0.0
 11
2059.612140574847
 21
5605.281257284729
 31
0.0
  0
ARC
  5
222C
330
1A
100
AcDbEntity
  8
VITE
 62
     0
100
AcDbCircle
 10
2047.824790047058
 20
5606.004024560482
 30
0.0
 40
10.39999999999405
100
AcDbArc
 50
305.5919146567438
 51
350.8316445528468
  0
ARC
  5
222D
330
1A
100
AcDbEntity
  8
VITE
 62
     0
100
AcDbCircle
 10
2052.025945299801
 20
5596.818048470292
 30
0.0
 40
1.990015625014936
100
AcDbArc
 50
274.9380788815646
 51
21.48548032808404
  0
LINE
  5
222E
330
1A
100
AcDbEntity
  8
VITE
 62
     0
100
AcDbLine
 10
2059.408145288609
 20
5595.408597976042
 30
0.0
 11
2057.917727072993
 21
5595.058700247598
 31
0.0
  0
LINE
  5
222F
330
1A
100
AcDbEntity
  8
VITE
 62
     0
100
AcDbLine
 10
2057.917727072993
 20
5595.058700247598
 30
0.0
 11
2054.564646338315
 21
5597.136744121195
 31
0.0
  0
LINE
  5
2230
330
1A
100
AcDbEntity
  8
FILETTO
 62
     0
100
AcDbLine
 10
2058.48798731658
 20
5595.978858219629
 30
0.0
 11
2055.134906581901
 21
5598.056902093225
 31
0.0
  0
ARC
  5
2231
330
1A
100
AcDbEntity
  8
VITE
 62
     0
100
AcDbCircle
 10
2057.920625276929
 20
5606.329559810097
 30
0.0
 40
1.990015625004127
100
AcDbArc
 50
274.938078881199
 51
21.48548032849284
  0
LINE
  5
2232
330
1A
100
AcDbEntity
  8
VITE
 62
     0
100
AcDbLine
 10
2053.926919019849
 20
5606.92815766744
 30
0.0
 11
2058.09192398545
 21
5604.346930510349
 31
0.0
  0
LINE
  5
2233
330
1A
100
AcDbEntity
  8
VITE
 62
     0
100
AcDbLine
 10
2055.60735057722
 20
5609.63966090015
 30
0.0
 11
2059.772355542822
 21
5607.058433743057
 31
0.0
  0
LINE
  5
2234
330
1A
100
AcDbEntity
  8
VITE
 62
     0
100
AcDbLine
 10
2058.778894758058
 20
5603.936752228301
 30
0.0
 11
2062.131975492734
 21
5601.858708354704
 31
0.0
  0
LINE
  5
2235
330
1A
100
AcDbEntity
  8
VITE
 62
     0
100
AcDbLine
 10
2062.481873221179
 20
5600.368290139087
 30
0.0
 11
2059.408145288609
 21
5595.408597976042
 31
0.0
  0
LINE
  5
2236
330
1A
100
AcDbEntity
  8
FILETTO
 62
     0
100
AcDbLine
 10
2057.917727072993
 20
5595.058700247598
 30
0.0
 11
2062.131975492734
 21
5601.858708354704
 31
0.0
  0
ARC
  5
2237
330
1A
100
AcDbEntity
  8
VITE
 62
     0
100
AcDbCircle
 10
2055.778649285736
 20
5607.6570316004
 30
0.0
 40
1.990015625005242
100
AcDbArc
 50
94.93807888104212
 51
201.485480328505
  0
ARC
  5
2238
330
1A
100
AcDbEntity
  8
VITE
 62
     0
100
AcDbCircle
 10
2049.883969308623
 20
5598.145520260585
 30
0.0
 40
1.990015625005356
100
AcDbArc
 50
94.9380788809891
 51
201.485480328505
  0
LINE
  5
2239
330
1A
100
AcDbEntity
  8
ASSE
 62
     0
100
AcDbLine
 10
2041.848598104383
 20
5609.707719769929
 30
0.0
 11
2062.581011822565
 21
5596.858978948874
 31
0.0
  0
ARC
  5
223A
330
1A
100
AcDbEntity
  8
VITE
 62
     0
100
AcDbCircle
 10
2059.979804538491
 20
5598.471055510208
 30
0.0
 40
10.39999999998251
100
AcDbArc
 50
125.5919146567286
 51
170.8316445528725
  0
LINE
  5
223B
330
1A
100
AcDbEntity
  8
VITE
 62
     0
100
AcDbLine
 10
2048.19245401071
 20
5599.193822785955
 30
0.0
 11
2054.087133987823
 21
5608.705334125769
 31
0.0
  0
LINE
  5
223C
330
1A
100
AcDbEntity
  8
VITE
 62
     0
100
AcDbLine
 10
2048.032239042735
 20
5597.416646327626
 30
0.0
 11
2052.197244008338
 21
5594.835419170535
 31
0.0
  0
LINE
  5
223D
330
1A
100
AcDbEntity
  8
VITE
 62
     0
100
AcDbLine
 10
2049.712670600107
 20
5600.128149560334
 30
0.0
 11
2053.877675565709
 21
5597.546922403243
 31
0.0
  0
LINE
  5
223E
330
1A
100
AcDbEntity
  8
COSTRUZIONE
 62
     0
100
AcDbLine
 10
2054.826893011223
 20
5609.840591876217
 30
0.0
 11
2046.305218607582
 21
5615.12182865174
 31
0.0
  0
LINE
  5
2240
330
1A
100
AcDbEntity
  8
COSTRUZIONE
 62
     0
100
AcDbLine
 10
2036.905084323263
 20
5620.750414774078
 30
0.0
 11
2033.478365303934
 21
5622.874095361606
 31
0.0
  0
CIRCLE
  5
2241
330
1A
100
AcDbEntity
  8
VITE
 62
     0
100
AcDbCircle
 10
2038.733419795605
 20
5631.29385968024
 30
0.0
 40
6.5
  0
LWPOLYLINE
  5
2243
330
1A
100
AcDbEntity
  8
VITE
 62
     0
100
AcDbPolyline
 90
        6
 70
     1
 43
0.0
 10
2038.499206994857
 20
5623.791961407317
 10
2045.113147876189
 20
5627.340076308439
 10
2045.347360676937
 20
5634.841974581363
 10
2038.967632596352
 20
5638.795757953165
 10
2032.35369171502
 20
5635.247643052041
 10
2032.119478914272
 20
5627.745744779116
  0
LINE
  5
2244
330
1A
100
AcDbEntity
  8
COSTRUZIONE
 62
     0
100
AcDbLine
 10
2051.72799553882
 20
5667.077296143016
 30
0.0
 11
2037.94654603854
 21
5658.513678567796
 31
0.0
  0
LINE
  5
2245
330
1A
100
AcDbEntity
  8
COSTRUZIONE
 62
     0
100
AcDbLine
 10
2057.254803247161
 20
5653.658643893565
 30
0.0
 11
2045.331931341882
 21
5634.347768877722
 31
0.0
  0
LINE
  5
2246
330
1A
100
AcDbEntity
  8
COSTRUZIONE
 62
     0
100
AcDbLine
 10
2038.531923234778
 20
5638.562017297464
 30
0.0
 11
2050.487222562208
 21
5657.852795688359
 31
0.0
  0
ARC
  5
2247
330
1A
100
AcDbEntity
  8
COSTRUZIONE
 62
     0
100
AcDbCircle
 10
2053.827722714336
 20
5655.683006286206
 30
0.0
 40
3.97942060725154
100
AcDbArc
 50
324.5619765594861
 51
149.4298783302882
  0
LINE
  5
2249
330
1A
100
AcDbEntity
  8
COSTRUZIONE
 62
     0
100
AcDbLine
 10
2077.933746025401
 20
5666.108463204189
 30
0.0
 11
2075.622346659022
 21
5667.540933720948
 31
0.0
  0
ARC
  5
22A9
330
1A
100
AcDbEntity
  8
COSTRUZIONE
 62
     0
100
AcDbCircle
 10
2076.563981937179
 20
5688.112948443766
 30
0.0
 40
10.03538752971838
100
AcDbArc
 50
328.2258952133964
 51
148.2396994272538
  0
LWPOLYLINE
  5
22AA
330
1A
100
AcDbEntity
  8
VITE
 62
     0
100
AcDbPolyline
 90
        6
 70
     1
 43
0.0
 10
2076.686397771066
 20
5691.128719890429
 10
2074.048009498941
 20
5689.700816768535
 10
2073.965415740582
 20
5686.701953938882
 10
2076.521210254348
 20
5685.130994231122
 10
2079.159598526472
 20
5686.558897353016
 10
2079.242192284832
 20
5689.557760182669
  0
CIRCLE
  5
22AC
330
1A
100
AcDbEntity
  8
COSTRUZIONE
 62
     0
100
AcDbCircle
 10
2076.603804012708
 20
5688.129857060776
 30
0.0
 40
6.5
  0
CIRCLE
  5
295A
330
1A
100
AcDbEntity
  8
0
100
AcDbCircle
 10
1437.891487944104
 20
5782.040922489479
 30
0.0
 40
140.0000000000003
  0
CIRCLE
  5
295C
330
1A
100
AcDbEntity
  8
0
100
AcDbCircle
 10
1437.891487944104
 20
5782.040922489479
 30
0.0
 40
32.49999999999965
  0
LINE
  5
295F
330
1A
100
AcDbEntity
  8
0
100
AcDbLine
 10
1494.165812382226
 20
5980.421957957504
 30
0.0
 11
1494.165812382226
 21
5910.232967519712
 31
0.0
  0
ENDSEC
  0
SECTION
  2
OBJECTS
  0
DICTIONARY
  5
C
330
0
100
AcDbDictionary
281
     1
  3
ACAD_COLOR
350
28A7
  3
ACAD_GROUP
350
D
  3
ACAD_LAYOUT
350
190C
  3
ACAD_MATERIAL
350
28A6
  3
ACAD_MLINESTYLE
350
E
  3
ACAD_PLOTSETTINGS
350
190D
  3
ACAD_PLOTSTYLENAME
350
190A
  3
ACAD_TABLESTYLE
350
28A8
  3
ACDBHEADERROUNDTRIPXREC
350
2971
  3
AcDbVariableDictionary
350
296C
  3
AcmDictionary
350
2908
  3
AMG
350
28B0
  3
AMGSNAPSETTINGS
350
2948
  0
DICTIONARY
  5
28A7
102
{ACAD_REACTORS
330
C
102
}
330
C
100
AcDbDictionary
281
     1
  0
DICTIONARY
  5
D
102
{ACAD_REACTORS
330
C
102
}
330
C
100
AcDbDictionary
281
     1
  0
DICTIONARY
  5
190C
102
{ACAD_REACTORS
330
C
102
}
330
C
100
AcDbDictionary
281
     1
  3
Layout1
350
190F
  3
Model
350
190E
  0
DICTIONARY
  5
28A6
102
{ACAD_REACTORS
330
C
102
}
330
C
100
AcDbDictionary
281
     1
  0
DICTIONARY
  5
E
102
{ACAD_REACTORS
330
C
102
}
330
C
100
AcDbDictionary
281
     1
  3
STANDARD
350
13
  0
DICTIONARY
  5
190D
102
{ACAD_REACTORS
330
C
102
}
330
C
100
AcDbDictionary
281
     1
  0
ACDBDICTIONARYWDFLT
  5
190A
102
{ACAD_REACTORS
330
C
102
}
330
C
100
AcDbDictionary
281
     1
  3
Normal
350
190B
100
AcDbDictionaryWithDefault
340
190B
  0
DICTIONARY
  5
28A8
102
{ACAD_REACTORS
330
C
102
}
330
C
100
AcDbDictionary
281
     1
  3
Standard
350
28A9
  0
DICTIONARY
  5
2971
102
{ACAD_REACTORS
330
C
102
}
330
C
100
AcDbDictionary
281
     1
  0
DICTIONARY
  5
296C
102
{ACAD_REACTORS
330
C
102
}
330
C
100
AcDbDictionary
281
     1
  3
CTABLESTYLE
350
296D
  3
DIMASSOC
350
296E
  3
PROJECTNAME
350
296F
  0
DICTIONARY
  5
2908
102
{ACAD_REACTORS
330
C
102
}
330
C
100
AcDbDictionary
281
     1
  3
AcmStdDictionary
350
2915
  3
AMDTSECTSYM_ARROWCOLOR
350
2933
  0
DICTIONARY
  5
28B0
102
{ACAD_REACTORS
330
C
102
}
330
C
100
AcDbDictionary
281
     1
  0
DICTIONARY
  5
2948
102
{ACAD_REACTORS
330
C
102
}
330
C
100
AcDbDictionary
281
     1
  0
LAYOUT
  5
190F
102
{ACAD_XDICTIONARY
360
2974
102
}
102
{ACAD_REACTORS
330
190C
102
}
330
190C
100
AcDbPlotSettings
  1

  2
Canon Bubble-Jet BJC-4200
  4

  6

 40
0.0
 41
0.0
 42
0.0
 43
0.0
 44
0.0
 45
0.0
 46
0.0
 47
0.0
 48
0.0
 49
0.0
140
0.0
141
0.0
142
1.0
143
1.0
 70
   688
 72
     0
 73
     0
 74
     5
  7

 75
    16
147
1.0
148
0.0
149
0.0
100
AcDbLayout
  1
Layout1
 70
     1
 71
     1
 10
0.0
 20
0.0
 11
12.0
 21
9.0
 12
0.0
 22
0.0
 32
0.0
 14
1.000000000000000E+20
 24
1.000000000000000E+20
 34
1.000000000000000E+20
 15
-1.000000000000000E+20
 25
-1.000000000000000E+20
 35
-1.000000000000000E+20
146
0.0
 13
0.0
 23
0.0
 33
0.0
 16
1.0
 26
0.0
 36
0.0
 17
0.0
 27
1.0
 37
0.0
 76
     0
330
17
  0
LAYOUT
  5
190E
102
{ACAD_XDICTIONARY
360
2972
102
}
102
{ACAD_REACTORS
330
190C
102
}
330
190C
100
AcDbPlotSettings
  1

  2
Canon Bubble-Jet BJC-4200
  4

  6

 40
0.0
 41
0.0
 42
0.0
 43
0.0
 44
0.0
 45
0.0
 46
0.0
 47
0.0
 48
0.0
 49
0.0
140
0.0
141
0.0
142
1.0
143
1.0
 70
  1712
 72
     0
 73
     0
 74
     0
  7

 75
     0
147
1.0
148
0.0
149
0.0
100
AcDbLayout
  1
Model
 70
     1
 71
     0
 10
0.0
 20
0.0
 11
12.0
 21
9.0
 12
0.0
 22
0.0
 32
0.0
 14
0.0
 24
0.0
 34
0.0
 15
0.0
 25
0.0
 35
0.0
146
0.0
 13
0.0
 23
0.0
 33
0.0
 16
1.0
 26
0.0
 36
0.0
 17
0.0
 27
1.0
 37
0.0
 76
     0
330
1A
  0
MLINESTYLE
  5
13
102
{ACAD_REACTORS
330
E
102
}
330
E
100
AcDbMlineStyle
  2
STANDARD
 70
     0
  3

 62
     0
 51
90.0
 52
90.0
 71
     2
 49
0.5
 62
   256
  6
BYLAYER
 49
-0.5
 62
   256
  6
BYLAYER
  0
ACDBPLACEHOLDER
  5
190B
102
{ACAD_REACTORS
330
190A
102
}
330
190A
  0
TABLESTYLE
  5
28A9
102
{ACAD_REACTORS
330
28A8
102
}
330
28A8
100
AcDbTableStyle
  3
Standard
 70
     0
 71
     0
 40
0.06
 41
0.06
280
     0
281
     0
  7
STANDARD
140
0.18
170
     2
 62
     0
 63
     7
283
     0
274
    -2
284
     1
 64
     0
275
    -2
285
     1
 65
     0
276
    -2
286
     1
 66
     0
277
    -2
287
     1
 67
     0
278
    -2
288
     1
 68
     0
279
    -2
289
     1
 69
     0
  7
STANDARD
140
0.25
170
     5
 62
     0
 63
     7
283
     0
274
    -2
284
     1
 64
     0
275
    -2
285
     1
 65
     0
276
    -2
286
     1
 66
     0
277
    -2
287
     1
 67
     0
278
    -2
288
     1
 68
     0
279
    -2
289
     1
 69
     0
  7
STANDARD
140
0.18
170
     5
 62
     0
 63
     7
283
     0
274
    -2
284
     1
 64
     0
275
    -2
285
     1
 65
     0
276
    -2
286
     1
 66
     0
277
    -2
287
     1
 67
     0
278
    -2
288
     1
 68
     0
279
    -2
289
     1
 69
     0
  0
DICTIONARYVAR
  5
296D
102
{ACAD_REACTORS
330
296C
102
}
330
296C
100
DictionaryVariables
280
     0
  1
STANDARD
  0
DICTIONARYVAR
  5
296E
102
{ACAD_REACTORS
330
296C
102
}
330
296C
100
DictionaryVariables
280
     0
  1
1
  0
DICTIONARYVAR
  5
296F
102
{ACAD_REACTORS
330
296C
102
}
330
296C
100
DictionaryVariables
280
     0
  1

  0
DICTIONARY
  5
2915
102
{ACAD_REACTORS
330
2908
102
}
330
2908
100
AcDbDictionary
281
     1
  0
XRECORD
  5
2933
102
{ACAD_REACTORS
330
2908
102
}
330
2908
100
AcDbXrecord
280
     1
 90
-1023410169
  0
DICTIONARY
  5
2974
330
190F
100
AcDbDictionary
280
     1
281
     1
  3
ACAD_XREC_ROUNDTRIP
360
2975
  0
DICTIONARY
  5
2972
330
190E
100
AcDbDictionary
280
     1
281
     1
  3
ACAD_XREC_ROUNDTRIP
360
2973
  0
XRECORD
  5
2975
102
{ACAD_REACTORS
330
2974
102
}
330
2974
100
AcDbXrecord
280
     1
102
SHADEPLOT
 70
     0
102
SHADEPLOTRESLEVEL
 70
     2
102
SHADEPLOTCUSTOMDPI
 70
   300
  0
XRECORD
  5
2973
102
{ACAD_REACTORS
330
2972
102
}
330
2972
100
AcDbXrecord
280
     1
102
SHADEPLOT
 70
     0
102
SHADEPLOTRESLEVEL
 70
     2
102
SHADEPLOTCUSTOMDPI
 70
   300
  0
ENDSEC
  0
EOF
